» » »

Planet Shakers, Im Yours Tabs (ver.1)

Artists:  A B C D E F G H I J K L M N O P Q R S T U V W X Y Z # 

Im Yours Tabs (ver.1)

Planet Shakers Tabs
 Rating:
4/5 (4 votes)
Im Yours lessons Tabs too difficult? Try these video lessons and learn fast
1
                Intro

E-----------------------------------------------------------------------------------|
B---------------------------------------7-7h8p7-------------------------------------|
G---4/6--7--6h7p6-----------7/9--------------9p7-9----------------------------------|
D-----------------------9--7--5-----------------------------------------------------|
A-----------------------------------------------------------------------------------|
E-----------------------------------------------------------------------------------|

E-----------------------------------------------------------------------------------|
B-----------------------------------------------------------------------------------|
G---4/6--7--6h7p6-----------6h-7--9-------------------------------------------------|
D-----------------------9--7--5-----------------------------------------------------|
A-----------------------------------------------------------------------------------|
E-----------------------------------------------------------------------------------|

E-----------------------------------------------------------------------------------|
B---------------------------------------7-7h8p7-------------------------------------|
G---4/6--7--6h7p6-----------7/9--------------9p7-9----------------------------------|
D-----------------------9--7--5-----------------------------------------------------|
A-----------------------------------------------------------------------------------|
E-----------------------------------------------------------------------------------|

E-----------------------------------------------------------------------------------|
B----------------------------------------7/8----------------------------------------|
G---4/6--7--6h7p6------------7/9------9---------------------------------------------|
D-----------------------9--7--5-----------------------------------------------------|
A-----------------------------------------------------------------------------------|
E-----------------------------------------------------------------------------------|

Verse 1

D
Oh Lord
               A            G
When I think of all You've done
   A                    D
My heart sings of Your love
              A
That saved my soul
            G
And made me whole
   Bm7     A
My life is Yours


Pre-Chorus

Em7               D
'Cos You paid the price
               G
I give you my life
    A
I'm Yours

Chorus

      Bm              G
So no matter what the cost
       D      A
I will go for You
   Bm7            G
No matter what it takes
     A
I'm Yours
  Bm                  G
Because You paid the price
   D     A
At Calvary
  Bm7               G
I give You my whole life
     A
I'm Yours

Interlude

E----------------------------------------------------------------------------|
B--------3----5--3--------3-----------------3----5--3------------------------|
G----------------------------------------------------------------------------|
D---4-5---5---------4h5--------------4-5---5---------4h5---------------------|
A----------------------------------------------------------------------------|
E----------------------------------------------------------------------------|     x2


Verse 2

Oh Lord

My everything to You I lift

My heart and soul I live

For You alone

I'm not my own

My life is Yours

Pre-Chorus

Em7               D
'Cos You paid the price
               G
I give you my life
    A
I'm Yours

Chorus

      Bm              G
So no matter what the cost
       D      A
I will go for You
   Bm7            G
No matter what it takes
     A
I'm Yours
  Bm                  G
Because You paid the price
   D     A
At Calvary
  Bm7               G
I give You my whole life
     A
I'm Yours                            x2


Bridge

Bm                  G
Because You paid the price
   D     A
At Calvary
  Bm7               G
I give You my whole life
     A
I'm Yours                            x4

Chorus

      Bm              G
So no matter what the cost
       D      A
I will go for You
   Bm7            G
No matter what it takes
     A
I'm Yours
  Bm                  G
Because You paid the price
   D     A
At Calvary
  Bm7               G
I give You my whole life
     A
I'm Yours                            x2

Ending

    G
I'm Yours
       Bm7      A
Jesus, I am Yours                x2
            
Submit corrections

comments powered by Disqus
↑ Back to top | Planet Shakers Tabs for Im Yours. Lyrics for acoustic guitar and electric guitar. 1 Tablatures and chords are parodies/interpretations of the original songs. You may use it for private study, scholarship, research or language learning purposes only