» » »

Queimando Tudo Bass tabs (ver.1)

Artists:  A B C D E F G H I J K L M N O P Q R S T U V W X Y Z # 

Queimando Tudo Bass tabs (ver.1)

Planet Hemp
Rating:
0/5 (0 votes)

Hard to play? Try these video lessons and learn fast.
                Queimando tudo
Planet Hemp	
Tablled By: Except_bass




Intro/Verse
G|-------------------|
D|-------------------|
A|-3--11-1-----------|
E|----------3--11-1--|


Chorus
G|--------------------------------|
D|--------------------------------|
A|-3---3--1-1-1-1-----------------|
E|----------------3---3--1-1-1-1--|
            
Hard to play? Try these video lessons and learn fast. | Correct




comments powered by Disqus
↑ Back to top | Tablatures and chords are parodies/interpretations of the original songs. You may use it for private study, scholarship, research or language learning purposes only