» » »

Death Is Not The End Tabs (ver.1)

Artists:  A B C D E F G H I J K L M N O P Q R S T U V W X Y Z # 

Death Is Not The End Tabs (ver.1)

Pj Harvey
Rating:
5/5 (1 vote)

Hard to play? Try these video lessons and learn fast.
                -------------------------------------------------------------------------------
                    Death Is Not The End-Pj Harvey
-------------------------------------------------------------------------------

Tuning:Standart

e|---------------------------------------------------------------------------|
B|---------------------------------------------------------------------------|
G|-----4-6--6-6--6-4------4-6--6-6--6----4--6-6-4--6-7--7-6-4----------------|
D|---7---------------7--7-------------7-----------------------7--------------|
A|---------------------------------------------------------------------------|
E|---------------------------------------------------------------------------|
Or:                                                            A
e|-------------------------------------------------------------0-------------|
B|----0-2--2-2--2-0------0-2--2-2-0----0-2-2-0---3--3-2-0------2-------------|
G|--2---------------2--2------------2---------------------2-or-2-------------|
D|---------------------------------------------2---------------2-------------|
A|-------------------------------------------------------------0-------------|
E|---------------------------------------------------------------------------|

Verse/Chorus:

           A
When you're sad and when you're lonely
        A 
And you haven't got a friend
            E      E7                  A
Just remember that death is not the end

    A                       
And all that you held sacred
      A  
Falls down and does not mend
            E       E7                 A
Just remember that death is not the end
           A            A
Not the end, not the end
            E       E7                 A  
Just remember that death is not the end

        D
For the tree of life is growing
          A              A7
Where the spirit never dies
        D
And the bright light of salvation
         A              A7
Up in dark and empty skies
         A
When the cities are on fire
         A
With the burning flesh of men
     E             E7
Just remember that death is not the end

End with the A chord

| /  slide up
| \  slide down
| h  hammer-on
| p  pull-off
| ~  vibrato
| +  harmonic
| x  Mute note
===============================================================================
            
Hard to play? Try these video lessons and learn fast. | Correct




comments powered by Disqus
↑ Back to top | Tablatures and chords are parodies/interpretations of the original songs. You may use it for private study, scholarship, research or language learning purposes only