» » »

Where Is My Mind Bass tabs (ver.3)

Artists:  A B C D E F G H I J K L M N O P Q R S T U V W X Y Z # 

Where Is My Mind Bass tabs (ver.3)

Pixies
Rating:
0/5 (0 votes)

Hard to play? Try these video lessons and learn fast.
                An amazing yet simple song, but I don't think anyone had tabbed it correctly, so here it is...


Main Riff
G|---------------------------------|
D|---------------------------------|
A|---------4-4-4-4-----------------|
E|-0-0-0-0---------4-4-4-4-5-5-5-5-|

Pre Chours
G|-------------------------------------|
D|-------------------------------------|
A|-------------------------------------|
E|-0-0-0-00-4-4-4-44-5-5-5-55-5-5-5-55-|

Chorus1
G|--------------|
D|--------------|
A|-4~-2222-2222-|
E|--------------|

Chorus2
G|--------------------------------------------|
D|--------------------------------------------|
A|-4~-2222-2222-2222-2222-2222-2222-2222-2222-|
E|--------------------------------------------|

Outro
G|----------------------|
D|----------------------|
A|---------4-4-4-4------|
E|-0-0-0-0---------4-4--|

Main Riff x7
Pre Chorus x1
Chorus1 x1

Main Riff x6
Pre Chorus x1
Chorus2 x1

Main Riff x7
Pre Chorus x1
Chorus1 x1

Main Riff x7
Outra x1
            
Hard to play? Try these video lessons and learn fast. | Correct




comments powered by Disqus
↑ Back to top | Tablatures and chords are parodies/interpretations of the original songs. You may use it for private study, scholarship, research or language learning purposes only