» » »

Pixies, Where Is My Mind Tabs (ver.1)

Artists:  A B C D E F G H I J K L M N O P Q R S T U V W X Y Z # 

Where Is My Mind Tabs (ver.1)

Pixies Tabs
Rating:
0/5 (0 votes)
Where Is My Mind lessons Tabs too difficult? Try these video lessons and learn fast
                Intro/Verse for Guitar 1
E  C#m  Abm  A

Verse for Guitar 2
E---------------------------------------------
B-----9----9----9----9----9----9--------------
G--9----9----9----9----8----8----9-9\8/9------
D---------------------------------------------
A---------------------------------------------
E---------------------------------------------

Chorus
 Just the intro chords playing while singer is singing Where is my Mind? 
Where is My mind? Where is my Mind? And then this little bit starts

E--------------------------------------------5-5-5--5-5-5-5-5-5-5-------------
B--------------------------------------------5-5-5--5-5-5-5-5-5-5-------------
G--------------------------------------------6-6-6--5-5-5-5-5-5-5----6---4---
D---------------2-2-2----6-6-6----7-7-7------7-7-7--7-7-7-7-7-7-7----6---4---
A-----4---------2-2-2----6-6-6----7-7-7------7-7-7--7-7-7-7-7-7-7----4---2---
E--0-----4--5---0-0-0----4-4-4----5-5-5------5-5-5--5-5-5-5-5-5-5-------------

Solo
Goes something like this.  I'm not sure of the end.

E-------------------------------------------------------7-7-9-10-12-14-14-14-
B----7-------7------7---7-7------------------7-9-10--------------------------
G----9^-----9^-----9^------9-9-7-7----7-9------------------------------------
D---------------------------------------7------------------------------------
A----------------------------------------------------------------------------
E----------------------------------------------------------------------------

Ok that's about it.  You must listen to the song in order to pick up the 
strum pattern for the chords and the time.  Trust me, you'll like this song!

Oh, here are the chords for the beggining

   E= 0               C#m=4                   Abm=4                  A=0
      0                   5                       4                    2
      1                   6                       4                    2
      3                   6                       6                    2
      3                   4                       6                    0
      0                   X                       4                    0

Lyrics

With your feet in the air, your head on the ground
Tie this trick and spin it...yeah
You're head'll collapse and there's nothing in it
and you'll ask yourself...

Where is my mind? Where is my mind? Where is my mind?
Way out, in the water see it swimming

I went swimming in the Carribean.
Animals were hiding behind the rock.
Except little fish 
But they told me, he swears 
Trying to talk to me, to me, to me

Where is my mind? Where is my mind? Where is my mind?
Way out, in the water see it swimming.
            
Submit corrections

comments powered by Disqus
↑ Back to top | Pixies Tabs for Where Is My Mind. Lyrics for acoustic guitar and electric guitar. Tablatures and chords are parodies/interpretations of the original songs. You may use it for private study, scholarship, research or language learning purposes only