» » »

Pixies, Manta Ray Bass tabs (ver.1)

Artists:  A B C D E F G H I J K L M N O P Q R S T U V W X Y Z # 

Manta Ray Bass tabs (ver.1)

Pixies Tabs
 Rating:
4/5 (4 votes)
Manta Ray lessons Tabs too difficult? Try these video lessons and learn fast
                All in a day                                         All for Me
Trek across the space, it'll be just like they say
-----------------------------3-3-3-3-----------------------------
----------3-3-3-3-3-3-3-3---------2-2-2-2-3-3-3-3-3-3-3-3--------
(Play this 11 times)

----------------------------------------------------------
----------------------------------------0---1---2---------
---------3-3-3-3--------2-----3--------------------0------
3-3-3-3--------2-2-2-2------------------------------------

(Begin the main bassline again)

-----------------------------3-3-3-3-------------------------------
----------3-3-3-3-3-3-3-3---------2-2-2-2-3-3-3-3-3-3-3-3----------

(Play another 11 times)

(The variation repeats itself again, then just play the main line until the end)

--Black Francis/The Pixies
            
Submit corrections

comments powered by Disqus
↑ Back to top | Pixies Bass for Manta Ray. Lyrics for acoustic guitar and electric guitar. Tablatures and chords are parodies/interpretations of the original songs. You may use it for private study, scholarship, research or language learning purposes only