» » »

Pixie Lott, Poker Face Tabs (ver.1)

Artists:  A B C D E F G H I J K L M N O P Q R S T U V W X Y Z # 

Poker Face Tabs (ver.1)

Pixie Lott Tabs
 Rating:
3.8/5 (5 votes)
Poker Face lessons Tabs too difficult? Try these video lessons and learn fast
                Pixie Lott

Poker Face Cover (Original - Lady Gaga)

Right, so it's basically a stripped down acoustic version of Poker Face. It's simple to
are finger-picked , pretty much like I've written below but feel free to play around 
it, and the Chorus is played as usual.

Standard Tuning

Intro
(Finger-Picked)

e|--------------------------------------|
B|------4-(let it ring)------------2----|
G|------4-------4----------1-------3----|
D|---6------------6------2--2----4---4--|
A|-6----------------6--2-------4--------|
E|--------------------------------------|

Verse

G#m                       E            F#
I wanna hold em' like they do in Texas please
G#m                              E              F#
Fold em' let em' hit me raise it baby stay with me
G#m                         E                    F#
LoveGame intuition play the cards with Spades to start
G#m                           E                    F#
And after he's been hooked I'll play the one that's on his heart

Pre-Chorus

e|---------------------------------------------------------------------------|
B|---------------------------------------------------------------------------|
G|--------8--6------------8-6-8-6--------------------------------------------|
D|----6~---------9---6~------------4-4/6-------------------------------------|
A|---------------------------------------------------------------------------|
E|---------------------------------------------------------------------------|

G#m               E                  F#
I'll get him hot, show him what I've got

e|---------------------------------------------------------------------------|
B|---------------------------------------------------------------------------|
G|--------8--6------------8-6-8-6--------------------------------------------|
D|----6~---------9---6~------------4-4/6-------------------------------------|
A|---------------------------------------------------------------------------|
E|---------------------------------------------------------------------------|

G#m               E                   F#
I'll get him hot, show him what I've got

Chorus

G#m                        E                      B5       F#
Can't read my, Can't read my, No he can't read my Poker Face
G#m                        E                      B5       F#
Can't read my, Can't read my, No he can't read my Poker Face

Verse

G#m               E          F#
P-P-P-Poker face, P-P-P-Poker Face
G#m               E          F#
P-P-P-Poker face, P-P-P-Poker Face

G#m                      E               F#
I wanna roll with him a hard pair we will be
G#m                  E                 F#
A little gambling is fun when you're with me
G#m                         E              F#
Russian Roulette is not the same without a gun
G#m                                E              F#
And baby when it's love if it ain't rough it isn't fun

Pre-Chorus

e|---------------------------------------------------------------------------|
B|---------------------------------------------------------------------------|
G|--------8--6------------8-6-8-6--------------------------------------------|
D|----6~---------9---6~------------4-4/6-------------------------------------|
A|---------------------------------------------------------------------------|
E|---------------------------------------------------------------------------|

Oh
G#m               E                  F#
I'll get him hot, show him what I've got

e|---------------------------------------------------------------------------|
B|---------------------------------------------------------------------------|
G|--------8--6------------8-6-8-6--------------------------------------------|
D|----6~---------9---6~------------4-4/6-------------------------------------|
A|---------------------------------------------------------------------------|
E|---------------------------------------------------------------------------|

Oh
G#m               E                   F#
I'll get him hot, show him what I've got

Chorus

G#m                        E                      B5       F#
Can't read my, Can't read my, No he can't read my Poker Face
G#m                        E                      B5       F#
Can't read my, Can't read my, No he can't read my Poker Face
F#
She ain't gotta love nobody (?)
G#m                        E                      B5       F#
Can't read my, Can't read my, No he can't read my Poker Face
G#m                        E                      B5
Can't read my, Can't read my, No he can't read my Poker Face
F#
She ain't gotta love nobody


(Then gently play the F# chord notes individually, I like to end on G#m, but that's optional)
e|------------------------4--------------------------------------------------|
B|-2----------------------4--------------------------------------------------|
G|----3-------------------4--------------------------------------------------|
D|-------4----------------6--------------------------------------------------|
A|---------4~-------------6--------------------------------------------------|
E|---------------------------------------------------------------------------|
            
Submit corrections

comments powered by Disqus
↑ Back to top | Pixie Lott Tabs for Poker Face. Lyrics for acoustic guitar and electric guitar. Tablatures and chords are parodies/interpretations of the original songs. You may use it for private study, scholarship, research or language learning purposes only