» » »

W.Y.S.I.W.Y.G Tabs (ver.1)

Artists:  A B C D E F G H I J K L M N O P Q R S T U V W X Y Z # 

W.Y.S.I.W.Y.G Tabs (ver.1)

Pitchshifter
Rating:
0/5 (0 votes)

Tabs too difficult? Try these video lessons and learn fast.
                "w.y.s.i.w.y.g" by pitchshifter

(What You See Is What You Get)

tuning - high to low: DAFCGD (down 1 whole step)

intro riff
d |----------------------------------|----------------------------------|
A |----------------------------------|----------------------------------|
F |----------------------------------|----------------------------------|
C |----------------------------------|----------------------------------|
G |-7---7---7---6-6-6-6-6-6-6-6-6/7--|-7---7-------7---7---7---8-8-8----|
D |-5---5---5---4-4-4-4-4-4-4-4-4/5--|-5---5-------5---5---5---6-6-6----|
pm  .   .   .                          .   .       .   .   .

bass intro riff
F |---------------------------------|---------------------------------|
C |---------------------------------|---------------------------------|
G |---------------------------------|---------------------------------|
D |-5---5---5---4-4-4-4-4-4-4-4-4h5-|-5---5-------5---5---5---6-6-6---|


main riff    (palm muting)
d |----------------------------------|
A |----------------------------------|
F |----------------------------------|
C |----------------------------------|
G |-7-7---6-6---9-9---4-4---4-4------|
C |-5-5---4-4---7-7---2-2---2-2------|
pm  . .   . .   .     .


bass main riffs
F |----------------------------------|---------------------------------|
C |----------------------------------|---------------------------------|
G |----------------------------------|---------------------------------|
D |-5-5---4-4---7-7---2-2---2-2------|-5-5-5/4-4-4/7-7-7/2-2-2-2-2-2-2-|


guitar riff (high distortion/fuzz)
d |----------------------------------|---------------------|
A |----------------------------------|---------------------|
F |----------------------------------|---------------------|
C |----------------------------------|---------------------|
G |-7-7-7/6-6-6/9-9-9-4-4-4-4-4-4-4--|-7-7-7-7-7-7-7-7-----|
D |-5-5-5/4-4-4/7-7-7-2-2-2-2-2-2-2--|-5-5-5-5-5-5-5-7-etc-|
"cause i want just one day..."


d |-7--8--7---------7-8-7-------|-7-8-7---------7-8------------|
A |----------9------------9-----|-------9----------------------|
F |-----------------------------|------------------------------|
C |-----------------------------|------------------------------|
G |-----------------------------|------------------------------|
D |-----------------------------|------------------------------|

heavy, choppy guitar
d |----------|-------------------------|------------------|
A |----------|-------------------------|------------------|
F |----------|-------------------------|------------------|
C |-4-5-4----|--4-5-4-5-5-----4-5-4----|-4-5-4-----4-5----|
G |-2-3-2-6--|--2-3-2-3-3-6---2-3-2-6--|-2-3-2-6---2-3----|
D |-------4--|------------4---------4--|-------4----------|


Listen to the CD (unless you have this track memorized, likely) to
hear where things repeat, etc.
            
Tabs too difficult? Try these video lessons and learn fast.


comments powered by Disqus
↑ Back to top | Tablatures and chords are parodies/interpretations of the original songs. You may use it for private study, scholarship, research or language learning purposes only