» » »

We Know Tabs (ver.1)

Artists:  A B C D E F G H I J K L M N O P Q R S T U V W X Y Z # 

We Know Tabs (ver.1)

Pitchshifter
Rating:
0/5 (0 votes)
Tabs too difficult? Try these video lessons and learn fast.
                tuning: high to low: DAFCGD (down 1 whole step)?
note: the tab was done in standard tuning-down 1 whole step

-Intro-

guitar 1
/------------------------------------------------------------
/------------------------------------------------------------
/------------------------------------------------------------
/-2-2-------------------------------2-2----------------------
/-2-2-------------------------------2-2----------------------
/-0-0-------------------------------0-0----------------------...

this is palm muted


guitar 2
/-----------------------------------
/-----------------------------------
/-----------------------------------
/-----------------------------------
/-7-7-7-5-5-5-7-7-7-1-1-1-1-1-1-1-1-
/-----------------------------------

-verse-

/-----------------------------------------------------------------
/-----------------------------------------------------------------
/-----------------------------------------------------------------
/-----------------------------------------------------------------
/-7-7-7-7-7-7-7-7-7-7-7-7-7-7-7-7-5-5-5-5-5-5-5-5-5-5-5-5-5-5-5-5-
/-----------------------------------------------------------------


/---------------------------------
/---------------------------------
/---------------------------------
/---------------------------------
/-3-3-3-3-3-3-3-3-3-3-3-3-3-3-3-3-
/---------------------------------


/-----------------------------------
/-----------------------------------
/-----------------------------------
/-2-2-5-7---2-5-7---2-5-7---2-2-5-7-
/-2-2-5-7---2-5-7---2-5-7---2-2-5-7-
/-0-0-3-5---0-3-5---0-3-5---0-0-3-5-

 <P.M>______<>______<>_____<P.M>

you have to mute the E's


-Chorus-
/-----------------------------------------------------
/-----------------------------------------------------
/------------------------------------------5-5--5-5-5-
/-3-3--3-3--3-3--5-5--5-5-5--7-7--7--7--7--5-5--5-5-5-
/-3-3--3-3--3-3--5-5--5-5-5--7-7--7--7--7--3-3--3-3-3-
/-1-1--1-1--1-1--3-3--3-3-3--5-5--5--5--5-------------
 

-Bridge-


/---------------------------------
/---------------------------------
/---------------------------------
/-2-2---2-2---2-2---2-2--2-2-9-12-
/-2-2---2-2---2-2---2-2--2-2-9-12-
/-0-0---0-0---0-0---0-0--0-0-7-10- 

                        <P.M>
            
Tabs too difficult? Try these video lessons and learn fast.


comments powered by Disqus
↑ Back to top | Tablatures and chords are parodies/interpretations of the original songs. You may use it for private study, scholarship, research or language learning purposes only