» » »

Pitchshifter, To Die Is Gain Tabs (ver.1)

Artists:  A B C D E F G H I J K L M N O P Q R S T U V W X Y Z # 

To Die Is Gain Tabs (ver.1)

Pitchshifter Tabs
 Rating:
4/5 (4 votes)
To Die Is Gain lessons Tabs too difficult? Try these video lessons and learn fast
1
                "To die is gain" by Pitch Shifter (Desensitized)

there isn't really any guitar in this song; if there is it's sampled
and too hard to play on a regular guitar. you might be able to make
a few of those noises with a wah pedal or something, but don't worry
about it. let the bass and drums take over.

tuning - down 1 whole step
high to low:  FCGD


bass riffs:

F |----------------------------------|
C |----------------------------------|
G |----------------------------------|
D |-5p0---0-3-----0-0---0------------|

F |----------------------------------|
C |----------------------------------|
G |----------------------------------|
D |-5p0---0-3---0-0---0-0---1--------|

F |----------------------------------|
C |----------------------------------|
G |-------------------------5--------|
D |-5p0---0-3---0-0---0-0------------|

try this chord on your guitar for the
stereo "whoosh" sound that comes in at
about 02:50 -
d |-----|-------|
A |-----|-------|
F |-----|-------|
C |-5---|-5\----|
G |-5---|-5\----|
D |-3---|-3p0---|
            
Submit corrections

comments powered by Disqus
↑ Back to top | Pitchshifter Tabs for To Die Is Gain. Lyrics for acoustic guitar and electric guitar. 1 Tablatures and chords are parodies/interpretations of the original songs. You may use it for private study, scholarship, research or language learning purposes only