» » »

Super Clean Tabs (ver.2)

Artists:  A B C D E F G H I J K L M N O P Q R S T U V W X Y Z # 

Super Clean Tabs (ver.2)

Pitchshifter
Rating:
0/5 (0 votes)

Hard to play? Try these video lessons and learn fast.
                Pitchshifter
PSI
Drop-C tuning



Intro:
D|-----------------------------------------|
A|-----------------------------------------|
F|-----------------------------------------| x1
C|-----------------------------------------|
G|-4-4----------5--6----4-4----------10--9-|
C|-4-4-xxx-xxx--5--6----4-4-xxx-xxx--10--9-|
   . .          .  .    . .          .   .

D|-------------------------------------|
A|-------------------------------------|
F|-------------------------------------|
C|-------------------------------------| x1
G|-4-4-4-4--5--6----4-4----------10--9-|
C|-4-4-4-4--5--6----4-4-xxx-xxx--10--9-|
   . . . .  .  .    . .          .   .


Clean w/Chorus&Tremelo:
(Comes in at the end of the guitar intro)
D|----|
A|----|
F|-11-| x1
C|-12-|
G|-9--|
C|----|

D|----------------------------|
A|----------------------------|
F|----------------------------|
C|----------------------------| x1
G|-4-4---5--6------4-4---10-9-|
C|-4-4---5--6------4-4---10-9-|
   . .   .  .      . .   .  .

D|------------------------------|
A|------------------------------|
F|------------------------------|
C|------------------------------| x1
G|-4-4-4-4--5--6-----4-4---10-9-|
C|-4-4-4-4--5--6-----4-4---10-9-|
   . . . .  .  .     . .   .  .


Verse:
D|----------------------------------------------|
A|----------------------------------------------|
F|----------------------------------------------|
C|----------------------------------------------| x2
G|----------------------------------------------|
C|-44444444-555-66666---44444444-10-10-10-99999-|



Chorus rhythm:
D|--------------------|
A|--------------------|
F|--------------------|
C|-4-4--------0---2-2-| x8
G|-4-4-4444---0---2-2-|
C|-4-4-4444---0---2-2-|
       ....

Chorus Lead:
Distorted W/wah&reverb
D|-------------------------------5555-|
A|-7777777777777777-888888888888------|
F|------------------------------------|
C|------------------------------------| x4
G|------------------------------------|
C|------------------------------------|


Post chorus:
Clean W/trem&chorus
D|----|
A|----|
F|-11-| x1
C|-12-|
G|-9--|
C|----|

W/effect
D|--------------|
A|-7-8-9-10-----|
F|----------9---|
C|------------8-| x1
G|--------------|
C|--------------|



Bridge
D|---------------------------------------------|
A|---------------------------------------------|
F|---------------------------------------------|
C|-9-999-99---12--12-12//---2-2-----2---2---22-| 1x
G|-7-777-77---10--10-10//---2-2-xxx-2-x-2-x-22-|
C|-7-777-77---10--10-10//---2-2-xxx-2-x-2-x-22-|

D|------------------------------------------------|
A|------------------------------3*3*3*------------|
F|------------------------------3*3*3*------------| 1x
C|-9-999-99---12--12-12//---2-2-3*3*3*-2---2---22-|
G|-7-777-77---10--10-10//---2-2--------2-x-2-x-22-|
C|-7-777-77---10--10-10//---2-2--------2-x-2-x-22-|

Bridge Lead
D|-----------------------------------------------------------|
A|-----------------------------------------------------------|
F|-----------------------------------------------------------|
C|-----------------------------------------------------------|
G|-2h3p2p0-2h3p2p0-2h3p2p0-2h3p2p0-2h3p2p0-2h3p2p0-2h3p2p0-2-|
C|-----------------------------------------------------------|



Clean W/trem&chorus
D|----|
A|----|
F|-11-| x1
C|-12-|
G|-9--|
C|----|



End on
D|---|
A|-7-|
F|-7-|
C|-4-|
G|-4-|
C|-4-|

...and
Distorted W/wah&reverb
D|-------------------------------5555-|
A|-7777777777777777-888888888888------|
F|------------------------------------|
C|------------------------------------| x4
G|------------------------------------|
C|------------------------------------|
            
Hard to play? Try these video lessons and learn fast. | Correct




comments powered by Disqus
↑ Back to top | Tablatures and chords are parodies/interpretations of the original songs. You may use it for private study, scholarship, research or language learning purposes only