» » »

Pitchshifter, Super Clean Tabs (ver.1)

Artists:  A B C D E F G H I J K L M N O P Q R S T U V W X Y Z # 

Super Clean Tabs (ver.1)

Pitchshifter Tabs
 Rating:
4/5 (4 votes)
Super Clean lessons Tabs too difficult? Try these video lessons and learn fast
                Band: Pitchshifter
tuning: high to low: DAFCGD (down 1 whole step)?
note: the tab was done in standard tuning-down 1 whole step

-verse-

/-----------------------------------|----------------------------------|
/-----------------------------------|----------------------------------|
/-----------------------------------|----------------------------------|
/-5-5-----6---7-----2-2-----11--10--|-5-5-5---6---7-----2-2-----11--10-|
/-5-5-----6---7-----2-2-----11--10--|-5-5-5---6---7-----2-2-----11--10-|
/-3-3-----4---5-----0-0-----9---8---|-3-3-3---4---5-----0-0-----9---8--|

this part is palm muted

the next part is when JS starts to sing "if you were..."

/-----------------------------------------------------------------|
/-----------------------------------------------------------------|
/-----------------------------------------------------------------|
/-----------------------------------------------------------------|
/-----------------------------------------------------------------|
/-3-3-3-3-3-3-3-3-4-4-4-5-5-5-5-5-3-3-3-3-3-3-3-3-9-9-9-8-8-8-8-8-|

-Chorus-
/------------------------------|------------------------------|
/------------------------------|------------------------------|
/------------------------------|------------------------------|
/-5-----3---4----6-----3---4---|-5-----3---4----6-----3---4---|
/-5-----3---4----6-----3---4---|-5-----3---4----6-----3---4---|
/-3-----1---2----4-----1---2---|-3-----1---2----4-----1---2---|


/-------------|
/-------------|
/-------------|
/-------------|
/-5-6-7-8-5-6-|
/-------------|
this goes just after the chorus


-Bridge-

guitar 1:
/--------------------------------------------------|
/--------------------------------------------------|
/---------------6-6-6-6-6-6------------------------|
/-8---8-8-8-8---6-6-6-6-6-6--3--3-XXX-3--3--3-3----|
/-8---8-8-8-8---4-4-4-4-4-4--3--3-XXX-3--3--3-3----|
/-6---6-6-6-6----------------1--1-XXX-1--1--1-1----|

guitar 2:
/---------------------------|
/---------------------------|
/---------------------------|
/---------------------------|
/---------------------------|
/-8/9/8-6-8/9/8-6-8/9/8-6-8-|


-end riff-


/-------------------------------------------------|
/-------------------------------------------------|
/-12-12-12-12-12-12-12-12-12-12-12-12-12-12-12-12-|
/-------------------------------------------------|
/-------------------------------------------------|
/-------------------------------------------------|

/-------------------------------------------------|
/-------------------------------------------------|
/-13-13-13-13-13-13-13-13-13-13-13-13-15-15-15-15-|
/-------------------------------------------------|
/-------------------------------------------------|
/-------------------------------------------------|

use a flanger/wah wah effect...
            
Submit corrections

comments powered by Disqus
↑ Back to top | Pitchshifter Tabs for Super Clean. Lyrics for acoustic guitar and electric guitar. Tablatures and chords are parodies/interpretations of the original songs. You may use it for private study, scholarship, research or language learning purposes only