» » »

Pitchshifter, Silo Tabs (ver.1)

Artists:  A B C D E F G H I J K L M N O P Q R S T U V W X Y Z # 

Silo Tabs (ver.1)

Pitchshifter Tabs
 Rating:
4/5 (4 votes)
Silo lessons Tabs too difficult? Try these video lessons and learn fast
1
                "Silo" by Pitch Shifter

tuning - high to low: DAFCGD (down 1 whole step)

this (instrumental) song is very repititious, almost hypnotic. kind of a hard-
core ambient track. it's also very simple though, so you shouldn't have any
trouble playing it.

main riff
d |---------------------------------|
A |---------------------------------|
F |---------------------------------|
C |---------------------------------|
G |-2-2-2---2-----------------------|
D |-0-0-0---0-----------------------|
                  (rest here while the bass plays)
bass main riff:
F |---------------------------------|
C |---------------------------------|
G |---------------------------------|
D |-0-0-0---0-----003p0-0-3p0-0-3p0-|


play an A over some repititions of the main riff.
d |---------------------------------|
A |-0-------------------------------|
F |-4-------------------------------|


lead part???
d |-15/\---------9-9h10--------------|-15/\---------9-10--------------|
A |------15--10---------8------------|------15--10--------------------|
F |----------------------------------|--------------------------------|
C |----------------------------------|--------------------------------|
G |----------------------------------|--------------------------------|
D |----------------------------------|--------------------------------|
            
Submit corrections

comments powered by Disqus
↑ Back to top | Pitchshifter Tabs for Silo. Lyrics for acoustic guitar and electric guitar. 1 Tablatures and chords are parodies/interpretations of the original songs. You may use it for private study, scholarship, research or language learning purposes only