>
 >
Shutdown

Shutdown Guitar Tabs

Pitchshifter - Shutdown chords, tabs, tablatures, lyrics

Guitar lessons | Add/correct | Request | Top 50 tabs Artists:  A B C D E F G H I J K L M N O P Q R S T U V W X Y Z 0-9

Shutdown Guitar Tabs – Pitchshifter

CD, Sheet music, Poster

Do you like Shutdown? Share with your friends now
Tabs
Tuning: D A D B G E

I don't know what's the tuning that jim davies use (maybe he use standerd D), so i've tabbed the song in drop d tuning, and it sounds right

Intro:

Guitar 1: w\wah
|-------------------------------------------------------------|
|-------------------------------------------------------------|
|-9-9-x-x-9b-x-9--9--9--9-9-12-12-x-x-12b-x-12--14--14--14-14-| x4
|-x-x-x-x-x--x-x--x--x--x-x-x--x--x-x-x---x-x---x---x---x--x--|
|-7-7-x-x-7b-x-7--7--7--7-7-10-10-x-x-10b-x-10--12--12--12-12-|
|-------------------------------------------------------------|

Guitar 2: starts on 3rd time of guitar 1
|---------------------------------------------------|
|---------------------------------------------------|
|---------------------------------------------------| x2
|-2-2-2-2-2--2-2-4--4--4-4-5-5-5-5-5--5-5-7--7--5-5-|
|-2-2-2-2-2--2-2-4--4--4-4-5-5-5-5-5--5-5-7--7--5-5-|
|-2-2-2-2-2--2-2-4--4--4-4-5-5-5-5-5--5-5-7--7--5-5-|


Verse:

Guitar 2:
|---------------------------------------------------|
|---------------------------------------------------|
|---------------------------------------------------| x4
|-2-2--2-2-----------------5-5--5-5-------7-7--7-5--|
|-2-2--2-2-----------------5-5--5-5-------7-7--7-5--|
|-2-2--2-2-----------------5-5--5-5-------7-7--7-5--|
Pm. .  . .                 . .  . .       . .  .

Guitar 1: w/tremolo picking - starts on 3rd time of guitar 2
|---------------------------------------------------|
|---------------------------------------------------|
|---------------------------------------------------|
|---------------------------------------------------|
|---------------------------------------------------|
|-2-------------/4--------/5-------------/7-----\5--|

|---------------------------------------------------|
|---------------------------------------------------|
|---------------------------------------------------|
|---------------------------------------------------|
|---------------------------------------------------|
|-/9------------/12-------/14------------/17--------|

Chorus 1: x2

Part 1:

Guitar 2:
|--------------------------------------------------|
|--------------------------------------------------|
|--------------------------------------------------|
|-10-10--10---10-10--10------10-10--10---10-10--10-|
|-10-10--10---10-10--10------10-10--10---10-10--10-|
|-10-10--10---10-10--10------10-10--10---10-10--10-|

Guitar 1: w/tremolo picking
|--------------------------------------------------|
|--------------------------------------------------|
|----------------------------------12---/14--/16---|
|-10-------------------------10--------------------|
|-10-----------------------------------------------|
|-10-----------------------------------------------|

Part 2:

Guitar 2:
|-------------------------------------------------|
|-------------------------------------------------|
|-------------------------------------------------|
|-2-2--2-2-5--2-2--2-2-5--2-2--2-2-5--2--2--2-2-0-|
|-2-2--2-2-5--2-2--2-2-5--2-2--2-2-5--2--2--2-2-0-|
|-2-2--2-2-5--2-2--2-2-5--2-2--2-2-5--2--2--2-2-0-|
Pm. .  . .    . .  . .    . .  . .    .  .  . .

Interlude:

Guitar 1: w\wah
|-------------------------------------------------------------|
|-------------------------------------------------------------|
|-9-9-x-x-9b-x-9--9--9--9-9-12-12-x-x-12b-x-12--14--14--14-14-|
|-x-x-x-x-x--x-x--x--x--x-x-x--x--x-x-x---x-x---x---x---x--x--|
|-7-7-x-x-7b-x-7--7--7--7-7-10-10-x-x-10b-x-10--12--12--12-12-|
|-------------------------------------------------------------|

Guitar 2:
|-------------------------------------------------------------|
|-------------------------------------------------------------|
|-------------------------------------------------------------|
|-------------------------------------------------------2-2---|
|-------------------------------------------------------2-2---|
|-------------------------------------------------------2-2---|
Pm                                                      . .

Verse 2: same verse 1

Chorus 2: same chorus 1

Interlude 2:

Guitar 1: w/effect, then feedback

Guitar 2:
|---------|
|---------|
|---------| x2
|-2-------|
|-2-------|
|-2-------|

Bridge:

Guitar 1: feedback

Guitar 2:
|---------------------------------------------------|
|---------------------------------------------------|
|---------------------------------------------------| x4
|-2-2--2-2--2-2------------5-5--5-5--5-5-5-7--7-7-5-|
|-2-2--2-2--2-2------------5-5--5-5--5-5-5-7--7-7-5-|
|-2-2--2-2--2-2------------5-5--5-5--5-5-5-7--7-7-5-|
Pm. .  . .  . .            . .  . .  . . . .  . . .

Chorus 3: same chorus 1

Chorus 4:

Guitar 2: clean
|-----------------------------------------------|
|-----------5-----------5-----------------------|
|-----5p4---------5p4-------4---------4---------|
|---5-----5-----5-----5-------2---2-----2---5---|
|-3-----------3---------------------------------|
|-------------------------2-----2---2-----5-----|

Chorus 5: same chorus 1


Tablature Keys:

h - hammer on
p - pull off
b - bend
r - relese bend
~ - sustain
/ - slide up
\ - slide down
v - vibrato
* - trill
x - mute string
pm - palm mute
nh - natural harmonic
ph - pitch harmonic
x\\\ - pick scrape (direction same as slide)





Comments


Popular Pitchshifter tabs & chords
Dead Battery 1 Bass Tabs
Genius 1 Bass Tabs
W.Y.S.I.W.Y.G. Bass Tabs
A Better Lie Tabs
Dead Battery Tabs
Hidden Agenda 2 Tabs
Microwaved 1 Tabs
Please Sir 1 Tabs
Stronger Tabs
Un-United Kingdom Tabs


Song lyrics



↑ Back to top | Tablatures and chords are parodies/interpretations of the original songs. You may use it for private study, scholarship, research or language learning purposes only
© 2014 AZChords.com Contact us | Privacy policy | DMCA | Add/correct tabs | Request tabs | Top 50 tabs