» » »

Shen-An-Doah Bass tabs (ver.1)

Artists:  A B C D E F G H I J K L M N O P Q R S T U V W X Y Z # 

Shen-An-Doah Bass tabs (ver.1)

Pitchshifter
Rating:
0/5 (0 votes)

Hard to play? Try these video lessons and learn fast.
                Pitchshifter - Shen-an-doah

Standard Tuning (E,A,D,G)


Well this is quite a kool tune, and there aren't any tabs up for it,
so i thort i'd tab it. Happy Bassing!

Verse Riff

G:-------------------------------------------------------------------
D:--------------3-3-3-3-3-3-3-3-3-3-4-4-4----------------------------
A:--------3-3-3---------------------------3-3-3----------------------
E:--2-2-2---------------------------------------2-2-2-2-2-2-2-2-2-2--

Prechorus

G:--------------
D:--------------
A:--------------
E:-2-2-2-2-2-2-2

Chorus (not really sure about this, ne comments plz mail the addy at
the bottom)

G:--------------------           G:-------------------
D:--------------------           D:-------------------
A:--3-------3-------8-  x3 then  A:--3-3-3-3-4-4-4-4--  x1 
E:----6-6-6---6-6-6---           E:-------------------  (sometimes x2)

no bass in the interlude bit i don't think

Playing Order :

Verse x6
Prechorus x1
Chorus x2
Verse x6
Prechorus x1
Chorus x4
Interlude (no bass)
Chorus x2
            
Hard to play? Try these video lessons and learn fast. | Correct




comments powered by Disqus
↑ Back to top | Tablatures and chords are parodies/interpretations of the original songs. You may use it for private study, scholarship, research or language learning purposes only