>
 >
Screenshot

Screenshot Guitar Tabs

Pitchshifter - Screenshot chords, tabs, tablatures, lyrics

Guitar lessons | Add/correct | Request | Top 50 tabs Artists:  A B C D E F G H I J K L M N O P Q R S T U V W X Y Z 0-9

Screenshot Guitar Tabs – Pitchshifter

CD, Sheet music, Poster

Do you like Screenshot? Share with your friends now
Tabs
tuning: high to low: DAFCGD (down 1 whole step)?
note: the tab was done in standard tuning-down 1 whole step

-Intro-
/-13---12--------12---13---10---- ->X2
/--------------------------------
/--------------------------------
/--------------------------------
/--------------------------------
/--------------------------------

use a flanger effect


-Chorus-
/-----------------------------------------------------------20-
/-----------------------------------------------------------20-
/---------------------------5-5-5------------------------------
/-5-5-5-5-5-5-5-5-7-7-7-7-7-5-5-5-2-2XX2-2XX2-2---7-7---7-7----
/-5-5-5-5-5-5-5-5-7-7-7-7-7-3-3-3-2-2XX2-2XX2-2---5-5---5-5----
/-3-3-3-3-3-3-3-3-5-5-5-5-5-------0-0XX0-0XX0-0---------------- ->X4

then

/---------------------------19-|------------------------------
/---------------------------19-|------------------------------
/------------------------------|------------------------------
/-2-2XX2-2XX2-2---7-7-7-7-7----|-2-2XX2-2XX2-2---7-7---7-7-7--
/-2-2XX2-2XX2-2---5-5-5-5-5----|-2-2XX2-2XX2-2---5-5---5-5-5--
/-0-0XX0-0XX0-0----------------|-0-0XX0-0XX0-0----------------  


-Bridge-

there's the intro riff again...

/-13---12--------12---13---10----
/--------------------------------
/--------------------------------
/--------------------------------
/--------------------------------
/--------------------------------

then, when the drum loop begins:

guitar 1:
/-------------------------------------------------------------------
/-------------------------------------------------------------------
/---------------------------5-5-5-----------------------------------
/-5-5-5-5-5-5-5-5-7-7-7-7-7-5-5-5-2-2-2-2-2-2-2-2-2-2-2-2-2-2-2-2-2-
/-5-5-5-5-5-5-5-5-7-7-7-7-7-3-3-3-2-2-2-2-2-2-2-2-2-2-2-2-2-2-2-2-2-
/-3-3-3-3-3-3-3-3-5-5-5-5-5-------0-0-0-0-0-0-0-0-0-0-0-0-0-0-0-0-0-
<___________________________P.M____________________________________>

all this part is palm muted


guitar 2:
/---------------------------------------------
/---------------------------------------------
/---12-12-12-12-14-14-16-16-9-9-9-9-9-9-10-10-
/---------------------------------------------
/---------------------------------------------
/---------------------------------------------

i don't know exactly which effect is used in this part
maybe flanger/wah wah, as they use it most of the time...





Comments


Popular Pitchshifter tabs & chords
Dead Battery 1 Bass Tabs
Everything Sucks Bass Tabs
Genius 1 Bass Tabs
Un-United Kingdom Bass Tabs
A Better Lie Tabs
Dead Battery Tabs
Down Tabs
Everything's Fucked Tabs
Everythings F***** Tabs
Psicological Tabs


Song lyrics



↑ Back to top | Tablatures and chords are parodies/interpretations of the original songs. You may use it for private study, scholarship, research or language learning purposes only
© 2014 AZChords.com Contact us | Privacy policy | DMCA | Add/correct tabs | Request tabs | Top 50 tabs