» » »

Pitchshifter, Please Sir Tabs (ver.1)

Artists:  A B C D E F G H I J K L M N O P Q R S T U V W X Y Z # 

Please Sir Tabs (ver.1)

Pitchshifter Tabs
 Rating:
3.6/5 (5 votes)
Please Sir lessons Tabs too difficult? Try these video lessons and learn fast
1
                
tuning - high to low DAFCGD (down a whole step)
to play it in standard tuning, just move everything down 2 frets from
how it is written


distorted bass intro:
F ||---------------------------------|---------------------------------|
C ||---------------------------------|---------------------------------|
G ||-8-8-8-8-8-8-8-8-7-7-7-7-7-7-7-7-|-8-8-8-8-8-8-8-8-7-7-7-8-8-8-7-7-|
D ||---------------------------------|---------------------------------|

F ||---------------------------------|---------------------------------|
C ||---------------------------------|---------------------------------|
G ||-4-4-4-4-4-4-4-4-3-3-3-3-3-3-3-3-|-4-4-4-4-4-4-4-4-3-3-3-4-4-4-3-3-|
D ||---------------------------------|---------------------------------|


main riff:
d ||---------------------------------|---------------------------------|
A ||---------------------------------|---------------------------------|
F ||---------------------------------|---------------------------------|
C ||-10101010101010109-9-9-9-9-9-9-9-|-10101010101010109-9-9-1010109-9-|
G ||-8-8-8-8-8-8-8-8-7-7-7-7-7-7-7-7-|-8-8-8-8-8-8-8-8-7-7-7-8-8-8-7-7-|
D ||---------------------------------|---------------------------------|

d ||---------------------------------|---------------------------------|
A ||---------------------------------|---------------------------------|
F ||---------------------------------|---------------------------------|
C ||-6-6-6-6-6-6-6-6-5-5-5-5-5-5-5-5-|-6-6-6-6-6-6-6-6-5-5-5-6-6-6-5-5-|
G ||-4-4-4-4-4-4-4-4-3-3-3-3-3-3-3-3-|-4-4-4-4-4-4-4-4-3-3-3-4-4-4-3-3-|
D ||---------------------------------|---------------------------------|


lead (wah):
d ||---------------------------------|
A ||-11-10-11-14^-----11-10^-/-11^-^-|
F ||---------------------------------|
C ||---------------------------------|
G ||---------------------------------|
D ||---------------------------------|

note: on the lead parts, he's just screwing around with his effects
unit, so don't worry about getting the notes exectly. they play it
differently every single night; just mess around with the wah and an
octaver if you have it, otherwise just bend the strings a lot.


d ||---------------------------------|---------------------------------|
A ||---------------------------------|---------------------------------|
F ||---------------------------------|---------------------------------|
C ||-10101010--------9-9-9-1010109-9-|-10101010--------9-9-9-1010109-9-|
G ||-8-8-8-8---------7-7-7-8-8-8-7-7-|-8-8-8-8---------7-7-7-8-8-8-7-7-|
D ||---------------------------------|---------------------------------|
     "please sir, tell me why" ...
d ||---------------------------------|---------------------------------|
A ||---------------------------------|---------------------------------|
F ||---------------------------------|---------------------------------|
C ||-6-6-6-6---------5-5-5-6-6-6-5-5-|-6-6-6-6---------5-5-5-6-6-6-5-5-|
G ||-4-4-4-4---------3-3-3-4-4-4-3-3-|-4-4-4-4---------3-3-3-4-4-4-3-3-|
D ||---------------------------------|---------------------------------|


riff 2:
d ||---------------------------------|---------------------------------|
A ||---------------------------------|---------------------------------|
F ||*-------------------------------*|---------------------------------|
C ||*10~-----9-------6~~-----5------*|-10------------------------------|
G ||-8~~-----7-rest--4~~-----3-rest--|-8-------------------------------|
D ||---------------------------------|---------------------------------|


"solo" (w/wah. just like the lead part):
d ||-------------------------------------------------------------------|
A ||-11-11-11-11-11-11-11-11-10-11-14^---------11-11-11-11-10^-/-11^-^-|
F ||-------------------------------------------------------------------|
C ||-------------------------------------------------------------------|
G ||-------------------------------------------------------------------|
D ||-------------------------------------------------------------------|
etc


riff 2 with the creaking-door sample, then this:
d ||-------------------------------------------------------------------|
A ||-------------------------------------------------------------------|
F ||----------------------------------10-10----------------------------|
C ||-10-10-10-10-10-10-10-10-10-10-10-10-10----etc---------------------|
G ||-8--8--8--8--8--8--8--8--8--8--8--8--8-----------------------------|
D ||-------------------------------------------------------------------|


ending:
d ||---------------------------------|---------------------------------|
A ||---------------------------------|---------------------------------|
F ||---------------------------------|---------------------------------|
C ||-10--10--10------9-9-9-9-10109-9-|-10--10--10------9-9-9-9-10109-9-|
G ||-8---8---8-------7-7-7-7-8-8-7-7-|-8---8---8-------7-7-7-7-8-8-7-7-|
D ||---------------------------------|---------------------------------|

d ||---------------------------------|---------------------------------|
A ||---------------------------------|---------------------------------|
F ||---------------------------------|-------------------------------10|
C ||-6---6---6-------5-5-5-5-6-6-5-5-|-6--6--6-------5-5-5-5-6-6-5-5-10|
G ||-4---4---4-------3-3-3-3-4-4-3-3-|-4--4--4-------3-3-3-3-4-4-3-3-8-|
D ||---------------------------------|---------------------------------|
            
Submit corrections

comments powered by Disqus
↑ Back to top | Pitchshifter Tabs for Please Sir. Lyrics for acoustic guitar and electric guitar. 1 Tablatures and chords are parodies/interpretations of the original songs. You may use it for private study, scholarship, research or language learning purposes only