» » »

My Kind Tabs (ver.1)

Artists:  A B C D E F G H I J K L M N O P Q R S T U V W X Y Z # 

My Kind Tabs (ver.1)

Pitchshifter
Rating:
0/5 (0 votes)

Hard to play? Try these video lessons and learn fast.
                tuning: high to low: DAFCGD (down 1 whole step)
note: the tab was done in standard tuning-down 1 whole step

-Intro-
/-----------------------------------------
/-----------------------------------------
/-----------------------------------------
/-----------------------------------------
/-----------------------------------------
/-3--3-3-3--3-3--6-6--4--4-4-4--4-4--4-4-- -> X2

they use a flanger/wah wah effect, you can try to scratch the string
with the pick to get the same effect.

-pre verse-

/----------------------------
/----------------------------
/----------------------------
/-5-4-3--5-4-3------6--6--6--  -> X2
/----------------------------
/----------------------------  


-Verse-

guitar 1:
/-----------------------------------------
/-----------------------------------------
/-----------------------------------------
/-----------------------------------------
/-5--5-8--5-5-5--5-5--6--6-9--6-6-6--8-8--
/-3--3-6--3-3-3--3-3--4--4-7--4-4-4--6-6--

this part is palm muted


guitar 2:
/-----------------------------------------
/-----------------------------------------
/-----------------------------------------
/--6--5-----5--6-----8--6--5--------6-----
/-----------------------------------------
/-----------------------------------------

this part also uses the flanger/wah wah effect


/---------------------------------
/---------------------------------
/---------------------------------
/-6-6-6-6-6-6-6-6-6-6-6-6-6-6-6-6-
/-6-6-6-6-6-6-6-6-6-6-6-6-6-6-6-6-
/-4-4-4-4-4-4-4-4-4-4-4-4-4-4-4-4-... just before the chorus begins


-Chorus-
/-----------------------------------------------
/-----------------------------------------------
/-----------------------------------------------
/--5----5--5--5---5-5-5---6----6--6--6---8-6-8--
/--5----5--5--5---5-5-5---6----6--6--6---8-6-8--
/--3----3--3--3---3-3-3---4----4--4--4---6-4-6--


-Bridge-

guitar 1:
/-----------------------------------------------------------------
/-----------------------------------------------------------------
/-------------------------------------------------8-8-8-8---------
/-5-5-5-5-5-5-5-5-5-5-5-5-5-5-5-5-6-6-6-6-6-6-6-6-8-8-8-8-8-8-8-8-
/-5-5-5-5-5-5-5-5-5-5-5-5-5-5-5-5-6-6-6-6-6-6-6-6-6-6-6-6-8-8-8-8-
/-3-3-3-3-3-3-3-3-3-3-3-3-3-3-3-3-4-4-4-4-4-4-4-4---------6-6-6-6-


guitar 2:
/-----------------------------------------------------------
/-----------------------------------------------------------
/-7-7-7-7-7-7-7-7-7-7-7-6-6-6-7-7-7-7-7-7-7-7-7-7-7-7-6-6-6-
/-5-5-5-5-5-5-5-5-5-5-5-4-4-4-5-5-5-5-5-5-5-5-5-5-5-5-4-4-4-
/-----------------------------------------------------------
/-----------------------------------------------------------


/-----------------------------------------------------------
/-----------------------------------------------------------
/-7-7-7-7-7-7-7-7-7-7-7-6-6-6-7-7-7-7-7-7-7-----------------
/-5-5-5-5-5-5-5-5-5-5-5-4-4-4-5-5-5-5-5-5-5-8-8-8-8-8-8-8-8-
/-----------------------------------------------------------
/-----------------------------------------------------------

this part also uses the flanger/wah wah effect


-Breakdown-

this part goes just before the final chorus

/------------------------
/------------------------
/-------0----------1-----
/-----5----------6-------
/---5----------6---------
/-3----------4-----------
            
Hard to play? Try these video lessons and learn fast. | Correct




comments powered by Disqus
↑ Back to top | Tablatures and chords are parodies/interpretations of the original songs. You may use it for private study, scholarship, research or language learning purposes only