» » »

Microwaved Tabs (ver.1)

Artists:  A B C D E F G H I J K L M N O P Q R S T U V W X Y Z # 

Microwaved Tabs (ver.1)

Pitchshifter
Rating:
5/5 (4 votes)
Tabs too difficult? Try these video lessons and learn fast.
                
* I don't know what tuning Pitchshifter uses on this song
* I tabbed this off the Twisted Metal 3 and TestDrive5 soundtracks 

In the meanwhile....
Drop C tuning ( low to high: C G C F A D )

* It's all in order

* whole rest - 4 beats

Intro: x1
F|--------------------------------------------|
A|--------------------------------------------|
D|-4--6-7--4--8-7--------------4--6-7--4--8-7-|
C|-4--6-7--4--8-7--whole rest--4--6-7--4--8-7-|
G|-2--4-5--2--6-5--------------2--4-5--2--6-5-|
C|--------------------------------------------|

Verse: x8
F|----------------|---|
A|----------------|---|
D|-4--6-7--4--8-7-|-4-|
C|-4--6-7--4--8-7-|-4-|
G|-2--4-5--2--6-5-|-2-|
C|----------------|---|
		    ^ last time

Chorus: x4
F|--------------|
A|--------------|
D|-4-6/7--4-8\7-|
C|-4-6/7--4-8\7-|
G|-2-4/5--2-6\5-|
C|--------------|

Pre-Verse?: x6
F|--------|
A|--------|
D|-4--6-7-|
C|-4--6-7-|
G|-2--4-5-|
C|--------|

Verse: x8
F|----------------|---|
A|----------------|---|
D|-4--6-7--4--8-7-|-4-|
C|-4--6-7--4--8-7-|-4-|
G|-2--4-5--2--6-5-|-2-|
C|----------------|---|
		    ^ last time

Chorus: x8
F|--------------|
A|--------------|
D|-4-6/7--4-8\7-|
C|-4-6/7--4-8\7-|
G|-2-4/5--2-6\5-|
C|--------------|

Verse: x4
F|----------------|---------|
A|----------------|---------|
D|-4--6-7--4--8-7-|-4-4-4-4-|
C|-4--6-7--4--8-7-|-4-4-4-4-|
G|-2--4-5--2--6-5-|-2-2-2-2-|
C|----------------|---------|
		    ^ ^ ^ ^ last time

Chorus: x8
F|--------------|
A|--------------|
D|-4-6/7--4-8\7-|
C|-4-6/7--4-8\7-|
G|-2-4/5--2-6\5-|
C|--------------|

Bridge: x4
F|--------------|
A|--------------|
D|-4-6/7--4-8\7-|
C|-4-6/7--4-8\7-|
G|-2-4/5--2-6\5-|
C|--------------|

- Guitar2:
F|-13-14-13-14-13-14-13-14-13-14-13-14-13-14-13-14~~~-|
A|----------------------------------------------------|
D|----------------------------------------------------|
C|----------------------------------------------------|
G|----------------------------------------------------|
C|----------------------------------------------------|

Chorus: x8
F|--------------|
A|--------------|
D|-4-6/7--4-8\7-|
C|-4-6/7--4-8\7-|
G|-2-4/5--2-6\5-|
C|--------------|

Guitar2 comes in on the 4th time play the Bridge: 
F|-13-14-13-14-13-14-13-14-13-14-13-14-13-14-13-14~~~-|
A|----------------------------------------------------|
D|----------------------------------------------------|
C|----------------------------------------------------|
G|----------------------------------------------------|
C|----------------------------------------------------|

* Listen to the song along with watching this and you'll get it
* I know I missed some parts that involved effects but Im too lazy to try to tab them


Peace and Love, Laidher (later)
            
Tabs too difficult? Try these video lessons and learn fast.


comments powered by Disqus
↑ Back to top | Tablatures and chords are parodies/interpretations of the original songs. You may use it for private study, scholarship, research or language learning purposes only