» » »

Keep It Clean Bass tabs (ver.1)

Artists:  A B C D E F G H I J K L M N O P Q R S T U V W X Y Z # 

Keep It Clean Bass tabs (ver.1)

Pitchshifter
Rating:
0/5 (0 votes)
Tabs too difficult? Try these video lessons and learn fast.
                I suggest playing this part and the verse in octaves to fill out the sound, but this is how it is played on the CD.
Intro


G|----------------------------------------------------------------
D|----------------------------------------------------------------
A|-------------------------------------3-3-3-4------------------
E|--5-5-5-4---5-5-5-4---5-5-5-4-----------------------------
B|----------------------------------------------------------------
Pre-chorus



G|---------------------------------------------------------------------
D|---------------------------------------------------------------------
A|--------------------3---------5---------6---------5---------3-------5
E|---------------------------------------------------------------------
B|--3-3-3---1-1-1-----3-3-3----4-4-4----3-3-3----1-1-1---3-3-3---4-4-4-
 
Verse Variation
            
Tabs too difficult? Try these video lessons and learn fast.


comments powered by Disqus
↑ Back to top | Tablatures and chords are parodies/interpretations of the original songs. You may use it for private study, scholarship, research or language learning purposes only