>
 >
Hidden Agenda 2

Hidden Agenda 2 Guitar Tabs

Pitchshifter - Hidden Agenda 2 chords, tabs, tablatures, lyrics

Guitar lessons | Add/correct | Request | Top 50 tabs Artists:  A B C D E F G H I J K L M N O P Q R S T U V W X Y Z 0-9

Hidden Agenda 2 Guitar Tabs – Pitchshifter

CD, Sheet music, Poster

Do you like Hidden Agenda 2? Share with your friends now
TabsTabs v2Tabs v3
||=====================================||
||=====================================||
||Band - Pitchshifter    		   ||	
||Song ? Hidden Agenda		         ||
||Album - Deviant		               || 
||Tuning - drop d		               ||  
||=====================================||
||=====================================||

______________________________________________________________

Intro/verse
  
  Rock the wah pedal back and forth on this note
E|------------|
B|------------|
G|------------|
D|-6~~~~~-----|
A|------------|
D|------------|

 next -this is actually the bass line but it can be played on guitar
E|-----------------|
B|-----------------|
G|-----------------|
D|-----------------|
A|-11-12-11-9------|
D|-----------------|

 A little guitar thingy
E|---------------------|
B|-10/9-----------7/9--|
G|---------------------|
D|---------------------|
A|---------------------|
D|---------------------|

______________________________________________________________

This is the part leading up to the chorus, the pre- chorus if you like
E|---------------|---------------|
B|---------------|---------------|
G|---------------|---------------|
D|-4--6-6?-4--6--|-4--6-6?-4--6--|
A|-4?-6-6?-4--6--|-4--6-6--4--6--|
D|-4?-6-6?-4--6--|-4--6-6--4--6--|


this is a little riff that sits over the top over the pre-chorus. use lots of wah for this.
E|-------------------------------------------------------|
B|-------------------------------------------------------|
G|-------------------------------------------------------|
D|-------------------------------------------------------|
A|-----------------------------------------------4-3-2~~~|
D|-4-6--44-6-4-6-4-4-6-4-6---4-6--44-6-4-6-4-4-6---------|


______________________________________________________________

Chorus

p.m...............             ..................
E|----------------------------|----------------------------|
B|----------------------------|----------------------------|
G|-------------------5-4~-----|---------------------5-4~---|
D|-4-4-4-4-4-4-4-6------------|-4-4--4-4--4-4-4-6----------|
A|-4-4-4-4-4-4-4-6------------|-4-4--4-4--4-4-4-6----------|
D|-4-4-4-4-4-4-4-6------------|-4-4--4-4--4-4-4-6----------|

______________________________________________________________


Outro

 This is quite possibly the the coolest riff ever!!!
E|---------------------------------------------------------|
B|---------------------------------------------------------|
G|---------------------------------------------------------|
D|-6-4-6-4-6-4-6-4-6---9-9-9-9-9-9-9-9-10-10-10-10-7-7-7-7-|
A|-6-4-6-4-6-4-6-4-6---9-9-9-9-9-9-9-9-10-10-10-10-7-7-7-7-|
D|-6-4-6-4-6-4-6-4-6---9-9-9-9-9-9-9-9-10-10-10-10-7-7-7-7-|


This is a cool little solo bit that goes over the top, again use wah.
E|--------------------------------------------------------|
B|--------------------------------------------------------|
G|-9-8----9-8-8--9-8-8--9-11-9-8-9-8----------------------|
D|--------------------------------------------------------|
A|--------------------------------------------------------|
D|--------------------------------------------------------|

This riff is layered on top of the other little solo bit, wah again
E|-----------------------------------------------------------------------------|
B|-----------------------------------------------------------------------------|
G|-10-9----10-9----10-9----10-12-10-9-10-9----10-9----10-9----10-12-10-9-10-9~-|
D|-----------------------------------------------------------------------------|
A|-----------------------------------------------------------------------------|
D|-----------------------------------------------------------------------------|

==                       TABLATURE EXPLANATION                        ==
----------                ----------                ----t---
----5h8--- Hammeron       ----(8)--- Ghost          ----6--- Tap
----------                ---------- Note           --------
----5p8--- Pulloff 
     

----------                ----------                -x~~~~~------
----5/8--- Slide Up       -----x---- Dead           -x~~~~~------ Pick Scrape 
----------                ---------- Note           -x~~~~~------
----5\8--- Slide Down  
    
----------                ||------|| Repeat         --------
----5~~~-- Vibrato        ||*----*||                ---5^--- Bend
----------                ||*----*||                --------
----------                ||------||                --------
             


~Ali~





Comments


Popular Pitchshifter tabs & chords
Everything Sucks Bass Tabs
Kerosene Bass Tabs
Un-Uk Bass Tabs
W.Y.S.I.W.Y.G. Bass Tabs
Disposable 1 Tabs
Everythings F***** Tabs
My Kind Tabs
Please Sir 1 Tabs
Product Placement Tabs
Whiteout Tabs


Song lyrics



↑ Back to top | Tablatures and chords are parodies/interpretations of the original songs. You may use it for private study, scholarship, research or language learning purposes only
© 2014 AZChords.com Contact us | Privacy policy | DMCA | Add/correct tabs | Request tabs | Top 50 tabs