» » »

Pitchshifter, Everything's F****D Bass tabs (ver.1)

Artists:  A B C D E F G H I J K L M N O P Q R S T U V W X Y Z # 

Everything's F****D Bass tabs (ver.1)

Pitchshifter Tabs
 Rating:
4/5 (4 votes)
Everything's F****D lessons Tabs too difficult? Try these video lessons and learn fast
                Dropped D tuning as with the whole album.

Intro and Verse (at the beggining of each always slide up to the first note):
G|---------------------------|
D|---------------------------|
A|---------------------------|
D|---12---------8---11---9---|

Then Onto:
G|---------------------------------|
D|---------------------------------|
A|---------------------------------|
D|---12----12----12---8---11---9---|

Chorus:
G|-------------------------------------------------------------------------|
D|-------------------------------------------------------------------------|
A|-------------------------------------------------------------------------|
D|---12--0-12--0-12--0-12--0-12--0---8-8-8-8-8-8-11-11-11-11-9-9-9-9-9-9---|

Bridge:
G|----------------------------------------------|
D|----------------------------------------------|
A|--------------------------0-------------------|  x2
D|---4--4-4-4-0--4--4-4-4-4-----4--4-4-4-0--4---|

Then this verse:
G|------------------------------------------------------------------------|
D|------------------------------------------------------------------------|
A|------------------------------------------------------------------------|
D|---12-X--12-X--12-X-8-X--11-X--9-X--12-X--12-X--12-X-14-X--13-X--10-X---|

Song ends on a D.
Of course, you can play the verse on the A string if you want...

A|---7----7----7---3---6---4---|

Great song to play.

END
            
Submit corrections

comments powered by Disqus
↑ Back to top | Pitchshifter Bass for Everything's F****D. Lyrics for acoustic guitar and electric guitar. Tablatures and chords are parodies/interpretations of the original songs. You may use it for private study, scholarship, research or language learning purposes only