» » »

Everythings F***** Tabs (ver.1)

Artists:  A B C D E F G H I J K L M N O P Q R S T U V W X Y Z # 

Everythings F***** Tabs (ver.1)

Pitchshifter
Rating:
0/5 (0 votes)

Hard to play? Try these video lessons and learn fast.
                another beutiful pitchishifter song
tuning - high to low: DAFCGD (down 1 whole step)



intro (flange effect):
d ||-12-12-12--12----12-12--12---12---(15-15-15--15)--11-11-11--11---10-10-10--|
A ||-12-12-12--12----12-12--12---12----13-13-13--13---11-11-11--11---10-10-10--|
F ||-\---------/-----\----/\-/---\-\/\-----------------------------------------|
C ||---------------------------------------------------------------------------|
G ||---------------------------------------------------------------------------|
D ||---------------------------------------------------------------------------|

intro bass:
F ||-------------------|
C ||-------------------|
G ||-7~----3~--6~--5~--|
D ||-------------------|

d ||---------------------------------------------------------------------------|
A ||---------------------------------------------------------------------------|
F ||---------------------------------------------------------------------------|
C ||-9-9-9--9------------------------------5-5-5--5-----8-8-8--8-----7--7--7---|
G ||-7-7-7--7------------------------------3-3-3--3-----6-6-6--6-----5--5--5---|
D ||---------------------------------------------------------------------------|

riff 1:
d ||------------------------------------------------------------------------|
A ||------------------------------------------------------------------------|
F ||------------------------------------------------------------------------|
C ||-9-9-9--9-----9-9-9--9-----9--9--9----5-5-5--5----8-8-8--8----7--7--7---|
G ||-7-7-7--7-----7-7-7--7-----7--7--7----3-3-3--3----6-6-6--6----5--5--5---|
D ||------------------------------------------------------------------------|

bass riff
F ||------------------------------------------------------------------------|
C ||------------------------------------------------------------------------|
G ||-7-7-7--7-----7-7-7--7-----7--7--7----3-3-3--3----6-6-6--6----5--5--5---|
D ||------------------------------------------------------------------------|

chorus:
d ||----------------------------------------------------------------|
A ||----------------------------------------------------------------|
F ||----------------------------------------------------------------|
C ||-9----9----9----9----9------5-5-5-5-5-5-8-8-8-8-8-7-7-7-7-7-7---|
G ||-7----7----7----7----7------3-3-3-3-3-3-6-6-6-6-6-5-5-5-5-5-5---|
D ||----------------------------------------------------------------|
                      "we got nothing to see, we got nothing to do"  ... etc

riff 2 (comes in at about 2:30)
d ||------------------------------------------------------------------------|
A ||------------------------------------------------------------------------|
F ||-----------------------------------------------------------x-x-x--x-x-x-|
C ||-----------------------------9-9-9-------------------------x-x-x--x-x-x-|
G ||-6-6-6-6-6/2-2---6---6-6-6-6/9-9-9---6---6-6-6-------2-2----------------|
D ||-4-4-4-4-4/0-0---4---4-4-4-4/7-7-7---4---4-4-4-4p0---0-0----------------|
                                               (try hitting some harmonics here)

interlude/background riff around 2:50 to 3:35
d ||---------------------------------------------------------------------------|
A ||---------------------------------------------------------------------------|
F ||-----------9-10~-11-10-9-----------------------9-10~-11-10-9-11-10-9-10-9--|
C ||---9-10-12---------------10-9---9-10---9-10-12-----------------------------|
G ||-12---------------------------12-----12------------------------------------|
D ||---------------------------------------------------------------------------|

background riff around 4:00 to 4:15
d ||-12^----12^----12^----12^---10^-----8^--------
A ||----------------------------------------------
F ||----------------------------------------------
C ||----------------------------------------------
G ||----------------------------------------------
D ||----------------------------------------------
            
Hard to play? Try these video lessons and learn fast. | Correct




comments powered by Disqus
↑ Back to top | Tablatures and chords are parodies/interpretations of the original songs. You may use it for private study, scholarship, research or language learning purposes only