» » »

Pitchshifter, Eight Days Tabs (ver.2)

Artists:  A B C D E F G H I J K L M N O P Q R S T U V W X Y Z # 

Eight Days Tabs (ver.2)

Pitchshifter Tabs
 Rating:
4/5 (4 votes)
Eight Days lessons Tabs too difficult? Try these video lessons and learn fast
1
                This is all right,  except I'm not
sure about the chorus.

Tuning:  CGCFAD

Intro/verse/pre chorus:

D|-------------------------------------------------
A|-------------------------------------------------
D|-------------------------------------------------
F|--1-1--0-1-1--0-1-1--0-1-1--2--------------------
G|--1-1--0-1-1--0-1-1--0-1-1--2--------------------
C|--1-1--0-1-1--0-1-1--0-1-1--2--------------------

play clean for intro and verse, but for pre chorus
play w/distortion.

other verse bit:
w/whammy pedal
D|-------------------------------------------------
A|--12~--11~---------------------------------------
D|-------------------------------------------------
F|-------------------------------------------------
G|-------------------------------------------------
C|-------------------------------------------------

If not, just use vibrato.

Chorus:
                                      1____________
D|-|-------------------------------|-|-------------
A|-|-------------------------------|-|-------------
D|0|-------------------------------|0|-------------
F|0|1111-1111--2222-2222--1111-1111|0|--0000--0000-
G|-|1111-1111--2222-2222--1111-1111|-|--0000--0000-
C|-|1111-1111--2222-2222--1111-1111|-|--0000--0000-

2_____________
D|-------------------------------------------------
A|-------------------------------------------------
D|-------------------------------------------------
F|--0000--0000-------------------------------------
G|--0000--0000-------------------------------------
C|--0000--0000-------------------------------------
PM____________|

Interlude:

D|-------------------------------------------------
A|-------------------------------------------------
D|-------------------------------------------------
F|--------------------------1-2--------------------
G|--------------------------1-2--------------------
C|-1-0--1--1-0-1-0-1-0-1-0--1-2--------------------
PM________________________|

break:
X2
D|-------------------------------------------------
A|-11b12r11b12--11b12r11b12------------------------
D|-------------------------------------------------
F|-------------------------------------------------
G|-------------------------------------------------
C|-------------------------------------------------

Last chord:

D|-------------------------------------------------
A|-------------------------------------------------
D|-------------------------------------------------
F|-1-----------------------------------------------
G|-1-----------------------------------------------
C|-1-----------------------------------------------
            
Submit corrections

comments powered by Disqus
↑ Back to top | Pitchshifter Tabs for Eight Days. Lyrics for acoustic guitar and electric guitar. 1 Tablatures and chords are parodies/interpretations of the original songs. You may use it for private study, scholarship, research or language learning purposes only