» » »

Pitchshifter, Disposable Tabs (ver.2)

Artists:  A B C D E F G H I J K L M N O P Q R S T U V W X Y Z # 

Disposable Tabs (ver.2)

Pitchshifter Tabs
 Rating:
4/5 (4 votes)
Disposable lessons Tabs too difficult? Try these video lessons and learn fast
1
                tuning: Drop-D


-intro/verse-

/-----------------------------
/-----------------------------
/-----------------------------
/-----------------------------
/-6-6---5-5--9-9--8-8--888888-
/-6-6---5-5--9-9--8-8--888888-

-pre chorus-

/------------------------------
/------------------------------
/------------------------------
/-------------9-9--------------
/-6-6---5-5---7-7--8-8--8-8--8-
/-6-6---5-5--------8-8--8-8--8-


-chorus-

same as pre-chorus, but with a different rythm

/---------------------------------
/---------------------------------
/---------9-9-------------9-9-----
/-6-6-5-5-9-9-8-8-6-6-5-5-9-9-8-8-
/-6-6-5-5-7-7-8-8-6-6-5-5-7-7-8-8-
/-6-6-5-5-----8-8-6-6-5-5-----8-8-

the same riff is used for the bridge


long live pitchshifter
            
Submit corrections

comments powered by Disqus
↑ Back to top | Pitchshifter Tabs for Disposable. Lyrics for acoustic guitar and electric guitar. 1 Tablatures and chords are parodies/interpretations of the original songs. You may use it for private study, scholarship, research or language learning purposes only