» » »

Pitchshifter, Disposable Tabs (ver.1)

Artists:  A B C D E F G H I J K L M N O P Q R S T U V W X Y Z # 

Disposable Tabs (ver.1)

Pitchshifter Tabs
Rating:
0/5 (0 votes)
Hard to play? Try these video lessons and learn fast.
                Pitchshifter - Disposable


* - let ring
a - acoustic
e - electric

Riff 1

e||----------------------------||
B||----------------------------||
G||-----------8-8--------------||
D||-5-5--4-4--8-8--7-7--777777-||
A||-5-5--4-4--6-6--7-7--777777-||
D||-5-5--4-4-------7-7--777777-||

Riff 2

e||---------------------||
B||---------------------||
G||-----------8-8-------||
D||-5-5--4-4--8-8--7-7*-||
A||-5-5--4-4--6-6--7-7*-||
D||-5-5--4-4-------7-7*-||

Riff 3

e||----------------------------||
B||----------------------------||
G||-----------8-8--------------||
D||-5-5--4-4--8-8--7-7--7-7--7-||
A||-5-5--4-4--6-6--7-7--7-7--7-||
D||-5-5--4-4-------7-7--7-7--7-||

Riff 4

e||------------------------------------------------||
B||------------------------------------------------||
G||------------------------------------------------||
D||------------------------------------------------||
A||------66----------66----------66----------66----||
D||-5-44----77-55-44----77-55-44----77-55-44----77-||

Riff 5

e||-------------||
B||-------------||
G||-------88----||
D||-55-44-88-77-||
A||-55-44-66-77-||
D||-55-44----77-||

Riff 6

e||------------||
B||------------||
G||------88----||
D||-5-44-88-77-||
A||-5-44-66-77-||
D||-5-44----77-||


Play order...

Riff 1 - x4 a 
Riff 2 - x4 a 
Riff 3 - x4 e
Riff 1 - x2 a 
Riff 2 - x4 a 
Riff 3 - x4 e
Riff 4 - x1 a
Riff 5 - x8 e
Riff 6 - x8 e
Riff 3 - x4 e
Riff 4 - x1 a
Riff 5 - x17 e
Riff 6 - x1 a

End, sounded right to me
            

comments powered by Disqus
↑ Back to top | Pitchshifter Tabs for Disposable. Lyrics for acoustic guitar and electric guitar. Tablatures and chords are parodies/interpretations of the original songs. You may use it for private study, scholarship, research or language learning purposes only