» » »

Pitchshifter, Condescension Tabs (ver.2)

Artists:  A B C D E F G H I J K L M N O P Q R S T U V W X Y Z # 

Condescension Tabs (ver.2)

Pitchshifter Tabs
 Rating:
4/5 (4 votes)
Condescension lessons Tabs too difficult? Try these video lessons and learn fast
                Tuning - D G C F A d (1 tone down) 116bpm

Main Riff (Guitar 1) (Add loads of wah and also distortion) 
---------


Play this in intro and during verses etc.

D|---------------------------------------------------------------
A|---------------------------------------------------------------
F|---------------------------------------------------------------
C|---------------------------------------------------------------
G|---------------------------------------------------------------
D|----12---12-12---15-14-14---16---16-16-16-16-17-16-------------


Verse (Guitar 2) Comes in underneath riff occasionally. Distortion
-----

       
D|---------------------------------------------------------------
A|---------------------------------------------------------------
F|---------------------------------------------------------------
C|-----2----------------------5-----------6----------------------
G|-----2----------------------5-----------6----------------------
D|-----0----------------------3-----------4----------------------


Chorus - Very Heavy Distortion...
------

    
D|---------------------------------------------------------------
A|---------------------------------------------------------------
F|---------------------------------------------------------------
C|--7--------3-----4-----7-----10-----5-----3--------------------
G|--7--------3-----4-----7-----10-----5-----3--------------------
D|--5--------1-----2-----5-----8------3-----1--------------------


Fill at around 2:00 (and under Verse). Palm Muted (I think?)
----

                                          
D|---------------------------------------------------------------
A|---------------------------------------------------------------
F|---------------------------------------------------------------
C|-7-7-7-7-7-7---2-2-2--2--2--2---5-5-5-5-5-5---2-2-2--2--2--2---
G|-7-7-7-7-7-7---2-2-2--2--2--2---5-5-5-5-5-5---2-2-2--2--2--2---
D|-5-5-5-5-5-5---0-0-0--0--0--0---3-3-3-3-3-3---0-0-0--0--0--0---


End - Play chorus and end on A5
---
            
Submit corrections

comments powered by Disqus
↑ Back to top | Pitchshifter Tabs for Condescension. Lyrics for acoustic guitar and electric guitar. Tablatures and chords are parodies/interpretations of the original songs. You may use it for private study, scholarship, research or language learning purposes only