» » »

Pitchshifter, Civilised Tabs (ver.1)

Artists:  A B C D E F G H I J K L M N O P Q R S T U V W X Y Z # 

Civilised Tabs (ver.1)

Pitchshifter Tabs
Rating:
0/5 (0 votes)
Civilised lessons Tabs too difficult? Try these video lessons and learn fast
                tuning: Drop-D


-verse-

/--19-19-19----19-19-19----19-19-19---- ....
/--19-19-19----19-19-19----19-19-19----
/--------------------------------------
/--------------------------------------
/--------------------------------------
/--------------------------------------

-Chorus-

/--------------------------------------------
/--------------------------------------------
/--------------------------------------------
/-XXX-11-XX-11-XX-11--9-XXX-11-XX-11-XX-11--9-
/-XXX-11-XX-11-XX-11--9-XXX-11-XX-11-XX-11--9-
/-XXX-11-XX-11-XX-11--9-XXX-11-XX-11-XX-11--9-


/-----------------
/-----------------
/-----------------
/-9-9-----9-9-----
/-9-9-----9-9-----
/-9-9-----9-9-----

-Bridge-

this part isn't played on guitar, but it goes:

/----------------------------------------------
/----------------------------------------------
/--6--6-6--6-6--6-6--6-6--6-6--6-6--6-6-6-6-4-6
/----------------------------------------------
/----------------------------------------------
/----------------------------------------------

just before "no cheating, no lies..."


-Chorus again-

and then:

/---------------------------------
/---------------------------------
/---------------------------------
/-9-9----11-11----9-9----11-11----
/-9-9----11-11----9-9----11-11----
/-9-9----11-11----9-9----11-11----


long live pitchshifter
            

comments powered by Disqus
↑ Back to top | Pitchshifter Tabs for Civilised. Lyrics for acoustic guitar and electric guitar. Tablatures and chords are parodies/interpretations of the original songs. You may use it for private study, scholarship, research or language learning purposes only