» » »

Chump Change Tabs (ver.1)

Artists:  A B C D E F G H I J K L M N O P Q R S T U V W X Y Z # 

Chump Change Tabs (ver.1)

Pitchshifter
Rating:
0/5 (0 votes)

Hard to play? Try these video lessons and learn fast.
                Drop D Tuning, Fzface effect sounds best

Starts with some muffeled stuff.....

e||-------------------||
B||-------------------||
G||-------------------|| keep playing this for ages then....
D||-------------------||
A||-------------------||
D||-8-9-7-8-9-7-8-9-7-||

e||-------------------xx-xx--------------------xxxxxxx-||
B||-------------------xx-xx--------------------xxxxxxx-||
G||-------------------xx-xx--------------------xxxxxxx-||
D||-8-9-7-8-9-7-8-9-7-xx-xx--8-9-7-8-9-7-8-9-7-xxxxxxx-||
A||-8-9-7-8-9-7-8-9-7-xx-xx--8-9-7-8-9-7-8-9-7-xxxxxxx-||
D||-8-9-7-8-9-7-8-9-7-xx-xx--8-9-7-8-9-7-8-9-7-xxxxxxx-||
            
Hard to play? Try these video lessons and learn fast. | Correct




comments powered by Disqus
↑ Back to top | Tablatures and chords are parodies/interpretations of the original songs. You may use it for private study, scholarship, research or language learning purposes only