» » »

Pitchshifter, A Better Lie Tabs (ver.1)

Artists:  A B C D E F G H I J K L M N O P Q R S T U V W X Y Z # 

A Better Lie Tabs (ver.1)

Pitchshifter Tabs
 Rating:
4/5 (4 votes)
A Better Lie lessons Tabs too difficult? Try these video lessons and learn fast
1
                tuning: Drop-D


-Riff 1-

/-------------------------------------------------------
/-------------------------------------------------------
/-------------------------------------------------------
/-8-8---5-5--6-6--8-8--8-8---8-8---5-5--6-6--8-8--8-8---
/-8-8---5-5--6-6--8-8--8-8---8-8---5-5--6-6--8-8--8-8---
/-8-8---5-5--6-6--9-9--8-8---8-8---5-5--6-6--8-8--8-8---


-Riff 2-

/------------------------------------------------------------------
/------------------------------------------------------------------
/-6-6-6-6-6-6-6-6-8-8-8-8-8-8-8-8----------------------------------
/----------------------------------8-8-8-8-8-8-8-8-8-8-8-8-8-8-8-8-
/----------------------------------8-8-8-8-8-8-8-8-8-8-8-8-8-8-8-8-
/----------------------------------8-8-8-8-8-8-8-8-8-8-8-8-8-8-8-8-
                                  <-start with palm muted then let ring->
or

/------------------------------------------------------------------
/------------------------------------------------------------------
/-6-6-6-6-6-6-6-6-8-8-8-8-8-8-8-8--10------------------------------
/----------------------------------8-------------------------------
/------------------------------------------------------------------
/------------------------------------------------------------------


long live pitchshifter
            
Submit corrections

comments powered by Disqus
↑ Back to top | Pitchshifter Tabs for A Better Lie. Lyrics for acoustic guitar and electric guitar. 1 Tablatures and chords are parodies/interpretations of the original songs. You may use it for private study, scholarship, research or language learning purposes only