» » »

Pistolita, Panic Tabs (ver.1)

Artists:  A B C D E F G H I J K L M N O P Q R S T U V W X Y Z # 

Panic Tabs (ver.1)

Pistolita Tabs
 Rating:
4/5 (4 votes)
Panic lessons Tabs too difficult? Try these video lessons and learn fast
1
                PISTOLITA - PANIC

  INTRO
e|---------------------------------------------|
B|---------------------------------------------|
G|-7~-----5~------2~------0--------------------| 
D|-----------------------------3---------------|
A|---------------------------------------------|
E|---------------------------------------------|

  VERSE
e|---------------------------------------------|
B|---------------------------------------------|
G|---------------------------------------------| 
D|-7/10/7-----5/7/5-----2~----0----------------|
A|--------------------------------3------------|
E|---------------------------------------------|

e|---------------------------------------------|
B|---------------------------------------------|
G|-7~-----5~------2~-----2-2-0-----------------| 
D|------------------------------3/5/7----------|
A|---------------------------------------------|
E|---------------------------------------------|

e|---------------------------------------------|
B|---------------------------------------------|
G|-7~-----5~------2~-----2-2-0-----------------| 
D|-----------------------------3---------------|
A|---------------------------------------------|
E|---------------------------------------------|

e|---------------------------------------------|
B|---------------------------------------------|
G|-7/10/7-----5/7/5------2~-----2-2-0----------| 
D|--------------------------------------3------|
A|---------------------------------------------|
E|---------------------------------------------|

  PRE CHORUS
e|---------------------------------------------|
B|---------------------------------------------|
G|---------------------------------------------| 
D|---8-------7---------------------------------|   x2
A|---8-x16---7-x16-----------------------------|
E|---6-------5---------------------------------|

  CHORUS
  GUIT 1
e|---------------------------------------------|
B|---------------------------------------------|
G|---10-9-12-10-9-10------10-9-12-10-9-10-7-6--|   x2 Figure out the timing
D|---------------------------------------------|
A|---------------------------------------------|
E|---------------------------------------------|
  GUIT 2
e|---------------------------------------------|
B|---------------------------------------------|
G|---------------------------------------------| 
D|---8-------7---------------------------------|   x2
A|---8-x16---7-x32-----------------------------|
E|---6-------5---------------------------------|


e|---------------------------------------------|
B|---------------------------------------------|
G|---------------------------------------------| 
D|--8-----10-----12-----15---------------------|   x2
A|--8-x8--10-x8--12-x8--15-x8------------------|
E|--6-----8------10-----13---------------------|

   END OF CHORUS
e|---------------------------------------------|
B|---------------------------------------------|
G|---------------------------------------------| 
D|--8~-----10~-----12~-------------------------|
A|--8~-----10~-----12~-------------------------|
E|--6~-----8~------10~-------------------------|

VERSE
e|---------------------------------------------|
B|---------------------------------------------|
G|---------------------------------------------| 
D|-7/10/7-----5/7/5-----2~----0----------------|
A|--------------------------------3------------|
E|---------------------------------------------|

e|---------------------------------------------|
B|---------------------------------------------|
G|-7~-----5~------2~-----2-2-0-----------------| 
D|-----------------------------3---------------|
A|---------------------------------------------|
E|---------------------------------------------|

PRE CHORUS
e|---------------------------------------------|
B|---------------------------------------------|
G|---------------------------------------------| 
D|---8-------7---------------------------------|   x2
A|---8-x16---7-x16-----------------------------|
E|---6-------5---------------------------------|

CHORUS
  GUIT 1
e|---------------------------------------------|
B|---------------------------------------------|
G|---10-9-12-10-9-10------10-9-12-10-9-10-7-6--|   x2 Figure out the timing
D|---------------------------------------------|
A|---------------------------------------------|
E|---------------------------------------------|
  GUIT 2
e|---------------------------------------------|
B|---------------------------------------------|
G|---------------------------------------------| 
D|---8-------7---------------------------------|   x2
A|---8-x16---7-x32-----------------------------|
E|---6-------5---------------------------------|


e|---------------------------------------------|
B|---------------------------------------------|
G|---------------------------------------------| 
D|--8-----10-----12-----15---------------------|   x5
A|--8-x8--10-x8--12-x8--15-x8------------------|
E|--6-----8------10-----13---------------------|

   END OF CHORUS
e|---------------------------------------------|
B|---------------------------------------------|
G|---------------------------------------------| 
D|--8~-----10~-----12~----15~~-----------------|
A|--8~-----10~-----12~----15~~-----------------|
E|--6~-----8~------10~----13~~-----------------|

   INTERLUDE
   PM-----PM-----PM-----PM
e|---------------------------------------------|
B|---------------------------------------------|
G|---------------------------------------------| 
D|--8-----10-----12-----15---------------------|   x2
A|--8-x8--10-x8--12-x8--15-x8------------------|
E|--6-----8------10-----13---------------------|

e|---------------------------------------------|
B|---------------------------------------------|
G|---------------------------------------------| 
D|--8-----10-----12-----15---------------------|   x8  PICKSLIDE BITWEEN
A|--8-x8--10-x8--12-x8--15-x8------------------|
E|--6-----8------10-----13---------------------|

  END
e|-----|
B|-----|
G|-----| 
D|--8--| 
A|--8--|
E|--6--|
            
Submit corrections

comments powered by Disqus
↑ Back to top | Pistolita Tabs for Panic. Lyrics for acoustic guitar and electric guitar. 1 Tablatures and chords are parodies/interpretations of the original songs. You may use it for private study, scholarship, research or language learning purposes only