» » »

Pistolita, Beni Accident Bass tabs (ver.1)

Artists:  A B C D E F G H I J K L M N O P Q R S T U V W X Y Z # 

Beni Accident Bass tabs (ver.1)

Pistolita Tabs
Rating:
5/5 (1 vote)
Beni Accident lessons Tabs too difficult? Try these video lessons and learn fast
                ----------------------------------------------------------------------------
----------------------------------------------------------------------------


Tuning: EADG standard

Intro/Verse
G|-------------------------------------------------------------------------|
D|-------------------------------------------------------------------------|
A|-7-6-5-5------0-3--0-2/3--0-230---7-6-5-0----------0---------------------|
E|-----------------------------------------------2-------------------------|

Chorus
G|-------------------------------------------------------------------------|
D|-------------------------------------------------------------------------|
A|----7777--0000--------------00-7-7h9p7-00-7-7h9p7------------------------|
E|----------------9999--7777--------------------------9999---7777----------|

Intro
Chorus

Bass Distortion Part A
G|-------------------------------------------------------------------------|
D|-------------------------------------------6-----------------------------|
A|---------76797----------76797----------7679------------------------------|
E|----999-----------9988----------88777---------7766666--------------------|

Part B
G|-------------------------------------------------------------------------|
D|-------------------------------------------------------------------------|
A|---0000000----------------------------222222233--------------------------|
E|--------------44444444----22222222---------------------------------------|
Part A

Then theres a little transition from Part A to B the second time around
G|-------------------------------------------------------------------------|
D|-------------------------------------------------------------------------|
A|-------------------------------------------------------------------------|
E|----6/16--14-12h14p12----------------------------------------------------|

Part B

Pre-Chorus
G|-------------------------------------------------------------------------|
D|-------------------------------------------------------------------------|
A|------7---------0---------------------00000------------------------------|
E|------------------------9-------7----------------9999----7777------------|

Chorus
Intro to end

| /  slide up
| \  slide down
| h  hammer-on
| p  pull-off
| ~  vibrato
| +  harmonic
| x  Mute note
============================================================================
            
Submit corrections

comments powered by Disqus
↑ Back to top | Pistolita Bass for Beni Accident. Lyrics for acoustic guitar and electric guitar. Tablatures and chords are parodies/interpretations of the original songs. You may use it for private study, scholarship, research or language learning purposes only