» » »

Transmission Bass tabs (ver.1)

Artists:  A B C D E F G H I J K L M N O P Q R S T U V W X Y Z # 

Transmission Bass tabs (ver.1)

Pipedown
Rating:
0/5 (0 votes)

Hard to play? Try these video lessons and learn fast.
                Pipedown
transmission
bass



X4               I N T R O
|------------------------|
|------------------------|
|---------888--55--------|
|55553355----88----------|


X3                             V E R S E                             
|--------------------------------------|
|--------------------------------------|
|6/10-10-12-12-(X3)-3-3-3-3-5-5-5-5----|
|-----------------------------------5--|
"within a vision state. eyes of glass sending back what we say, wo-oah"

X2                     P R E   C H O R U S  
|--------------------------------|--------|
|--------------------------------|--------|
|3-3-3-3-5-5-5-5-----------------|--------|
|----------------5-5-5-5-5-5-5-5-|333335--|
"do you waste inside output the fuuuuse"

X2                                                          C H O R U S
|---------------------------------------------------------------------|
|--------3-3-3-3---------0-0-0-0---------33----------------0-0-0-0----|
|----------------3-3-3-3-------------------5533223-3-3-3-3------------|
|5-5-5-5-------------------------5-5-5-5------------------------------|
"we want to know we want to knoooowwww. just what the pictures say"

VERSE X3

PRE CHORUS X2

CHORUS X2


X4   P R E   B R E A K D O W N
|----------------------------|
|----------------------------|
|----------------------------|
|55553355-555335-------------|
"shut it DOOOOOWWWWNNN!!!"

                A L M O S T   B R E A K D O W N
|---------------------------------------------|
|---------------------------------------------|
|--------------6/12-12--12--12-(X4)-----------|
|1/55-5-5-(X4)--------------------------------|
"your penitent, you stand accused. YOU WANNA WAGE THIS WAR!!!!"


|---------------------|
|---------------------| *YOU JUST KEEP PLAYING THAT
|---------------------|  THROUGH THE BREAKDOWN
|5-5-5-5--------------|


X6                      D U R I N G   S O L O
|-------------------------------------------|
|------------------------3-3-3-3------------|
|--------3-3-3-3-5-5-5-5--------------------|
|5-5-5-5------------------------------------|



X8                   O U T R O
|----------------------------|
|----------------------------|
|----------33355-------------|
|55553355-------55-----------|
"tyrannical you'll stand accused, suffer with no refrain"
"empirical, the masses use, reclaiming souls"
"NOW WHAT WE SAY. BREAK YOURSELF OUT OF IT!!!!"



pipedown diggidy snoop dog kif
            
Hard to play? Try these video lessons and learn fast. | Correct




comments powered by Disqus
↑ Back to top | Tablatures and chords are parodies/interpretations of the original songs. You may use it for private study, scholarship, research or language learning purposes only