» » »

Pink Slip, Ultimate Bass tabs (ver.1)

Artists:  A B C D E F G H I J K L M N O P Q R S T U V W X Y Z # 

Ultimate Bass tabs (ver.1)

Pink Slip Tabs
 Rating:
4/5 (4 votes)
Ultimate lessons Tabs too difficult? Try these video lessons and learn fast
1
                +++++++++++++++++++++++
| Pink Slip- Ultimate |
+++++++++++++++++++++++


"Cause I've been waitig all my life
For someone just like you..."

Tuning: EADG


Intro
1.
G|---------------------------------|
D|---------------------------------|
A|------------------------------9/-|
E|---------------------------------|

2.
G|---------------------------------------------------------------------------|
D|----------------------------2-2222222----------------------------2-2222222-|
A|-2-22222----------2-4-44444-----------2-22222----------2-4-44444-----------|
E|---------2-222222-----------------------------2-222222---------------------|

Verse
"I've been wasting time..."
3.
G|-------------------------------------------------------------------------|
D|-------------------------------------------------------22222222-44444x---|
A|-------------------2222222-----------44444444-44444444-------------------|
E|-44444440-00000000--------2-22222222-------------------------------------|

Chorus
"You're it, you're the ultimate..."
4.
G|---------------------------------------------------------------------------|
D|----------------------------2-222222x----------------------------2-2222222-|
A|-2-22222----------2-4-44444------------222-22----------2-4-44444-----------|
E|---------2-222222-----------------------------2-222222---------------------|

"Cause I've been waiting all my life..."
5.
G|-------------------------------------------------------|
D|-----------------2-2-2221-11-1111----------222x--------|
A|----------------------------------44444444-------------|
E|-4-4-4442-22-222---------------------------------------|

Outro
6.
G|--------------------------------------|
D|----------------------------2-2222222-|
A|-2-22222----------2-4-44444-----------|
E|---------2-222222---------------------|

Verse
"You're the kind of guy..."
7.
G|---------------------------------------------------------------------------|
D|---------------------------------------------------------------4~-4~-2~-2~-|
A|-------------------2222222----------------------------22222222-------------|
E|-44444440-00000000--------2-22222222-44444440-0000000----------------------|

"You're the kind of guy..."
8.
G|-------------------------------------------------------------------------|
D|-------------------------------------------------------22222222-44444x---|
A|-------------------2222222-----------44444444-44444444-------------------|
E|-44444440-00000000--------2-22222222-------------------------------------|

Chorus
"You're it, you're the ultimate..."
9.
G|---------------------------------------------------------------------------|
D|----------------------------2-222222x----------------------------2-2222222-|
A|-2-22222----------2-4-44444------------222-22----------2-4-44444-----------|
E|---------2-222222-----------------------------2-222222---------------------|

"Cause I've been waiting all my life..."
10.
G|-------------------------------------------------------|
D|-----------------2-2-2221-11-1111----------222x--------|
A|----------------------------------44444444-------------|
E|-4-4-4442-22-222---------------------------------------|

Outro
11.
G|--------------------------------------------------------------------------|
D|----------------------------2-2222222---------------------------2-2222222-|
A|-2-22222----------2-4-44444------------2-222----------2-4-44444-----------|
E|---------2-222222----------------------------2-222222---------------------|

12.
G|--------------------------------------------------------------------------|
D|-----------------2-2-2221-11-111-------------------22222222-44444x--------|
A|---------------------------------44444444-44444444------------------------|
E|-4-4-4442-22-222----------------------------------------------------------|

Chorus
"You're it, you're the ultimate..."
13.
G|---------------------------------------------------------------------------|
D|----------------------------4-444444x----------------------------4-4444444-|
A|-4-44444----------4-6-66666------------444-44----------4-6-66666-----------|--x2
E|---------4-444444-----------------------------4-444444---------------------|

"Cause I've been waiting all my life..."
14.
G|-------------------------------------------------------|
D|-----------------4-4-4443-33-3333-11111111-444x--------|
A|-------------------------------------------------------|
E|-6-6-6664-44-444---------------------------------------|

"You're it, you're the ultimate you..."
15.
G|--------------------------------------------------------|
D|----------------------------4-4444444-------------------|
A|-4-44444----------4-6-66666-----------4~----------------|
E|---------4-444444---------------------------------------|

Please rate thanks!!


Lyrics:

You're the kind of friend
Who always bends when I'm broken
Like remember when
You took my heart and put it back together again

I've been wasting time
With numerous guys but now it's over
Let me tell you why I'm through
I've got someone new who's just like you

You're it, you're the ultimate
It's automatic I'm sure of it
No lie, so don't even try to tell me that
You're not the guy
Cause I've been waitig all my life
For someone just like you
But you're it, you're the ultimate you

You're the kind of guy
Who's hand in mine
Send shivers, up and down the spine
You took my heart and put it back together again

You're the kind of guy
Who blows my mind
And now it's my turn
You've been right in front of me
Everything I need why didn't I see



+++++++++++++++++++++++++++++++++
| Raileff                       |
+++++++++++++++++++++++++++++++++
            
Submit corrections

comments powered by Disqus
↑ Back to top | Pink Slip Bass for Ultimate. Lyrics for acoustic guitar and electric guitar. 1 Tablatures and chords are parodies/interpretations of the original songs. You may use it for private study, scholarship, research or language learning purposes only