>
 >
Take Me Away

Take Me Away Guitar Tabs

Pink Slip - Take Me Away chords, tabs, tablatures, lyrics

Guitar lessons | Add/correct | Request | Top 50 tabs Artists:  A B C D E F G H I J K L M N O P Q R S T U V W X Y Z 0-9

Take Me Away Guitar Tabs – Pink Slip

CD, Sheet music, Poster

Do you like Take Me Away? Share with your friends now
Bass TabsTabsTabs v2Tabs v3
Intro:
E|-----------------------------------------------------------------|
B|-----------------------------------------------------------------|
G|-----------------------------------------------------------------|
D|-4-4-x-x-x-x-x-x-4-4-x-x-x-x-x-x-4-4-x-x-4-4-x-x-4-4-4-4-4-4-4-4-|
A|-4-4-x-x-x-x-x-x-4-4-x-x-x-x-x-x-4-4-x-x-4-4-x-x-4-4-4-4-4-4-4-4-|
E|-2-2-x-x-x-x-x-x-2-2-x-x-x-x-x-x-2-2-x-x-2-2-x-x-2-2-2-2-2-2-2-2-|

E|----------------------------------|
B|----------------------------------|
G|----------------------------------|
D|----------------------------------| x2
A|-----0-1-2-2—x-x3-2-0-2-2-1-0---|
E|-2-2------------------------------|

Verse 1:
E|-----------|
B|-----------|
G|-----------|
D|-----------|
A|-----0-1-2-|
E|-2-2-------|

E|----------------|
B|----------------|
G|----------------|
D|----------------|
A|-3-2-0-2—-0---|
E|----------------|

Pre chorus:
E|-----------------------------------------------------------------|
B|-----------------------------------------------------------------|
G|-----------------------------------------------------------------|
D|-4-4-x-x-x-x-x-x-4-4-x-x-x-x-x-x-4-4-x-x-4-4-x-x-4-4-4-4-4-4-4-4-|
A|-4-4-x-x-x-x-x-x-4-4-x-x-x-x-x-x-4-4-x-x-4-4-x-x-4-4-4-4-4-4-4-4-|
E|-2-2-x-x-x-x-x-x-2-2-x-x-x-x-x-x-2-2-x-x-2-2-x-x-2-2-2-2-2-2-2-2-|

Chorus:
   D     F#    B     A
E|-5-----2-----2—----0------|
B|-7-----3-----4-----2--------|
G|-7-x7--5-x7--4-x7--2-x4-----|
D|-7-----4-----4-----2--------|
A|-5-----4-----2-----0--------|
E|-------2--------------------|

   D     F#    B     A     D     E     C#
E|-5-----2-----2-----0-----5-----7-----4-----|
B|-7-----3-----4-----2-----7-----9-----6-----|
G|-7-x7--5-x7--4-x7--2-x4--7-x4--9-x4--6-x14-|
D|-7-----4-----4-----2-----7-----9-----6-----|
A|-5-----4-----2-----0-----5-----7-----4-----|
E|-------2-----------------------------------|

Verse 2:
E|----------------------------------|
B|----------------------------------|
G|----------------------------------|
D|----------------------------------| x4
A|-----0-1-2-2—x-x3-2-0-2-2-1-0---|
E|-2-2------------------------------|

E|----------------|
B|----------------|
G|----------------|
D|----------------|
A|-3-2-0-2—-0---|
E|----------------|

Pre chorus 2:
E|-----------------------------------------------------|
B|-----------------------------------------------------|
G|-----------------------------------------------------|
D|-4-4-------4-4-------4-4-x-x-4-4-x-x-4-4-4-4-4-4-4-4-|
A|-4-4-------4-4-------4-4-x-x-4-4-x-x-4-4-4-4-4-4-4-4-|
E|-2-2-------2-2-------2-2-x-x-2-2-x-x-2-2-2-2-2-2-2-2-|
Chorus:
   D     F#    B     A
E|-5-----2-----2-----0-----|
B|-7-----3-----4-----2-----|
G|-7-x7--5-x7--4-x7--2-x8--|
D|-7-----4-----4-----2-----|
A|-5-----4-----2-----0-----|
E|-------2-----------------|

   D     F#    B     A     D     E     C#
E|-5-----2-----2-----0-----5-----7-----4-----|
B|-7-----3-----4-----2-----7-----9-----6-----|
G|-7-x7--5-x7--4-x7--2-x4--7-x4--9-x4--6-x14-|
D|-7-----4-----4-----2-----7-----9-----6-----|
A|-5-----4-----2-----0-----5-----7-----4-----|
E|-------2-----------------------------------|

Backing chords by solo:
   D     F#    B     A
E|-5-----2-----2-----0-----|
B|-7-----3-----4-----2-----|
G|-7-x7--5-x7--4-x7--2-x8--|
D|-7-----4-----4-----2-----|
A|-5-----4-----2-----0-----|
E|-------2-----------------|

   D     F#    B     A     D     E     C#
E|-5-----2-----2-----0-----5-----7-----4-----|
B|-7-----3-----4-----2-----7-----9-----6-----|
G|-7-x7--5-x7--4-x7--2-x4--7-x4--9-x4--6-x14-|
D|-7-----4-----4-----2-----7-----9-----6-----|
A|-5-----4-----2-----0-----5-----7-----4-----|
E|-------2-----------------------------------|

Chorus:
   D     F#    B     A
E|-5-----2-----2—----0-------|
B|-7-----3-----4-----2---------|
G|-7-x7--5-x7--4-x7--2-x8------|
D|-7-----4-----4-----2---------|
A|-5-----4-----2-----0---------|
E|-------2---------------------|

   D     F#    B     A     D     E
E|-5-----2-----2-----0-----5-----7------|
B|-7-----3-----4-----2-----7-----9------|
G|-7-x7--5-x7--4-x7--2-x4--7-x4--9-x4---|
D|-7-----4-----4-----2-----7-----9------|
A|-5-----4-----2-----0-----5-----7------|
E|-------2------------------------------|

   D     F#    B     A
E|-5-----2-----2-----0-----|
B|-7-----3-----4-----2-----|
G|-7-x7--5-x7--4-x7--2-x8--|
D|-7-----4-----4-----2-----|
A|-5-----4-----2-----0-----|
E|-------2-----------------|

   D     F#    B     A     D     E     C#
E|-5-----2-----2-----0-----5-----7-----4-----|
B|-7-----3-----4-----2-----7-----9-----6-----|
G|-7-x7--5-x7--4-x7--2-x4--7-x4--9-x4--6-x14-|
D|-7-----4-----4-----2-----7-----9-----6-----|
A|-5-----4-----2-----0-----5-----7-----4-----|
E|-------2-----------------------------------|

Ending:
E|-------|
B|-------|
G|-------|
D|--10b--|
A|-------|
E|-------|





Comments


Popular Pink Slip tabs & chords
Take Me Away Bass Tabs
Ultimate Bass Tabs
Take Me Away 2 Tabs
Take Me Away 3 Tabs
Take Me Away Intro Tabs
Ultimate Tabs
Ultimate 2 Tabs


Song lyrics



↑ Back to top | Tablatures and chords are parodies/interpretations of the original songs. You may use it for private study, scholarship, research or language learning purposes only
© 2014 AZChords.com Contact us | Privacy policy | DMCA | Add/correct tabs | Request tabs | Top 50 tabs