» » »

Pink Slip, Take Me Away Bass tabs (ver.1)

Artists:  A B C D E F G H I J K L M N O P Q R S T U V W X Y Z # 

Take Me Away Bass tabs (ver.1)

Pink Slip Tabs
Rating:
4/5 (3 votes)
Take Me Away lessons Tabs too difficult? Try these video lessons and learn fast
                +++++++++++++++++++++++++++
| Pink Slip- Take Me Away |
+++++++++++++++++++++++++++

Tuning: EADG

Intro.
1.
G|-------------------------|
D|-------------------------|
A|---0-1-22---3-2-0-2-1-0~-|
E|-22----------------------|

2.
G|-------------------------|
D|-------------------------|
A|---0-1-22---3-2-0-22-1-0-|
E|-22----------------------|

Verse
"Get out, get out.."
3.
G|-------------------------|
D|-------------------------|
A|---0-1-22---3-2-0-2-1-0~-|
E|-22----------------------|

"So why, so why.."
4.
G|-------------------------|
D|-------------------------|
A|---0-1-22---3-2-0-22-1-0-|
E|-22----------------------|

Pre-Chorus
"On and on..."
5.
G|-------------------------------------|
D|-------------------------------------|
A|-------------------------------------|
E|--22x----22x-----22x---22x--22222222-|

Chorus
"Don't wanna grow up.."
6.
G|--------------------------------------|
D|--------------------------------------|
A|-555555555---------222222222----------|
E|----------222222222---------555555555-|

"I wanna shout out take me..Away..away.."
7.
G|-----------------------------------------------------------------|
D|----------------------------2222-3333----------------------------|
A|-555555555---------2222-0000----------44444444-44444444-44444444-|
E|----------222222222----------------------------------------------|

Outro
"Round and round here we go again.." x3
8.
G|-------------------------|
D|-------------------------|
A|---0-1-22---3-2-0-2-1-0~-|
E|-22----------------------|

"Same old stuff.. Never ends.."
9.
G|-----|
D|-----|
A|-----|
E|-22x-|

Verse
"Do this, do that.." x3
10.
G|-------------------------|
D|-------------------------|
A|---0-1-22---3-2-0-2-1-0~-|
E|-22----------------------|

"Why, goodbye..goodbye..goodbye.."
11.
G|-------------------------|
D|-------------------------|
A|------------3-2-0-22-1-0-|
E|-22x---------------------|

Pre-Chorus
"On and on.."
12.
G|-------------------------------------|
D|-------------------------------------|
A|-------------------------------------|
E|--22x----22x-----22x---22x--22222222-|

Play chorus
And during guitar solo play chorus
And after that play chorus :D
And after that play outro ;)

Plz rate :D

++++++++++++++++++++++++++++
Lyrics

Yeah!!
Yeah!!

Get up, get out
move on move on
there's no doubt
I'm all wrong
You're right
It's all the same with you
I'm too thin, too fat
You ask why
So why? So why..

On and on and on and on...

Don't wanna grow up
I wanna get out .. Hey!
Take me away
I wanna shout out take me.. Away..away..away...away..awaay..

Round and round
Here we go again
Same old start, same old end
Turn my head I'll turn it back again
Same old stuff never ends

Do this, do that
Can't do, can't do with that
I'll tune in, tune out
I've heard it all before
Hello, goodbye
Never askin'me why
Goodbye.. goodbye..goodbye

++++++++++++++++++++++++++++

+++++++++++++++++++++++++++++++++
| Raileff                       |
+++++++++++++++++++++++++++++++++
            

comments powered by Disqus
↑ Back to top | Pink Slip Bass for Take Me Away. Lyrics for acoustic guitar and electric guitar. Tablatures and chords are parodies/interpretations of the original songs. You may use it for private study, scholarship, research or language learning purposes only