>
 >
Wish You Were Here Ver

Wish You Were Here Ver Guitar Tabs

Pink Floyd - Wish You Were Here Ver chords, tabs, tablatures, lyrics

Guitar lessons | Add/correct | Request | Top 50 tabs Artists:  A B C D E F G H I J K L M N O P Q R S T U V W X Y Z 0-9

Wish You Were Here Ver Guitar Tabs – Pink Floyd

CD, Sheet music, Poster

Do you like Wish You Were Here Ver? Share with your friends now
Tabs
Guitars 1 and 2 are in Standard tuning (E A D G B e)

Guitars 3 and 4 are in open G Tuning (D G D G B D)


Intro: let ring throughout
Guitar 1 (12 string Elec.)
e|-----------||---------3---3-3------3--3---------------3-----|
B|-----------||---------3---3-3------3--3------------3--3-----|
G|-----------||-----0---0---0-0--0---------0---------0--0-----|
D|--------0--||--2---------------2------------2--0----------0-|
A|---0h2-----||---------------------------------------------x-|
E|-----------||---------------------------------------------3-|

e|--3---3------------------------3--3--3--3--3----------------|
B|--3---3---------------------3--3--3--3--3--3----------------|
G|--0-------------------------0--0--0--0--0--0-------0--------|
D|-------------------0----2----------------------2-------2----|
A|--------------0h2-------------------------------------------|
E|----------3-------------------------------------------------|

e|--------3------3---3------------------3-3-3---3-3-3-3-------|
B|------3-3------3---3------------------3-3-3---3-3-3-3-------|
G|------0-0------0----------------------0-0-0---0-0-0-0-------|
D|--0--------0------------------0---2---------------------2---|
A|-----------x--------------0h2-------------------------------|
E|-----------3-----------3------------------------------------|

e|------------------3-3-3--3-3-3----------------3-3-3---3-3-3-3-|
B|------------------3-3-3--3-3-3----------------3-3-3---3-3-3-3-|
G|------------------0-0-0--0--------------------0-0-0---0-0-0-0-|
D|--0-----------2-------2--------------0---2--------------------|
A|------2---0----------------------0h2--------------------------|
E|--------------------------------------------------------------|

e|-----------------------3--------3--------------------3--------|
B|-----------------------3--------3---------3-------3--3---3--3-|
G|-----------------------0------------------0----0--0--0---0--0-|
D|--2---0-----------2-2--------------2--0---0----0-----0---0----|
A|----------2---0------------0--------------0h2--------2---2----|
E|-----------------------------------------------------3--------|

e|--3------------------||
B|--3------------------||
G|--0------------------||
D|--0------------0-----||
A|-----------0h2-------||
E|------3--------------||

1st Guitar Solo: (0:41)
Guitar 1 plays above, 1 seven bars only
Guitar 2 (6 string acoustic) 
e|-----------------------------------------------3/5--5/3--|
B|---------3-----5---3---------------------------3/5--5/3--|
G|--2-/4-----------4------4p2p0----------------------------|
D|-------------------------------0------0--0---------------|
A|----------------------------------/2---------------------|
E|---------------------------------------------------------|

e|----------------------------------------------------------------|
B|--3/5---5/3------3/5--5/3-------------------3---5~---5^-p3---3--|
G|--2/4---4/2-p0---2/4--4/2-p0---4~-----2/4-----4------------4----|
D|-------------------------------5~-------------------------------|
A|----------------------------------------------------------------|
E|----------------------------------------------------------------|

e|----------------------------------------------------------------|
B|--------------3---5-------------------3--5----5^--5^--p3--5-----|
G|--2-----4^------------4^---2-----2/4--------------------------2-|
D|----------------------------------------------------------------|
A|----------------------------------------------------------------|
E|----------------------------------------------------------------|

e|----------------3----3-------3---------3-----3--3--3--3---||
B|-------------3--3----3----3--3---------3-----3--3--3--3---||
G|--4^---2-----0--0----0----0--0---------0-----0--0--0--0---||
D|-------------0-------0----0------------0-----0--0--0--0---||
A|---------------------2-----------------2-----2--2--2--2---||
E|---------------------3-----------3-----3-----3--3--3--3---||

Fill 1(1:09)
Guitar 1
e|--------------3--------3-------------------------3--3-3-----3-3-3-|
B|--------------3--------3-------------------------3--3-3-----3-3-3-|
G|--------------0----------------------------------0--0-0-----0-0-0-|
D|------2---2----------------2---0-----------------0--0-0-----0-0-0-|
A|--0----------------0---------------0-h-2--0------2--2-2-----2-2-2-|
E|---------------------------------------------3---3--3-3--3--3-3-3-|

1st Verse: Guitars 1 & 2
e|--0-------0---0-0-0--0---0-0-0----2--2---2-2-2-2-2---2---2-2---2-|
B|--1-------1---1-1-1--1---1-1-1----3--3---3-3-3-3-3---3---3-3---3-|
G|--0-------0---0-0-0--0---0-0-0----2--2---2-2-2-2-2---2---2-2---2-|
D|--2-------2---2-2-2--2---2-2-2----0--0---0-0-0-0-0---0---0-0---0-|
A|--3-------3---3-3-3--3---3-3-3----x--x---x-x-x-x-x---x---x-x---x-|
E|--3---3---3---3-3-3--3---3-3-3----2--2---2-2-2-2-2---2---2-2---2-|
          Guitar 3 plays fill 1 here^

Fill 1: (1:22)
guitar 3 w/slide (fage in w/vol. control
D|---------------------------------------------------|
B|---------------------------------------------------|
G|----11\9---------9\7---7~--------------------------|
D|---------------------------------------------------|
G|---------------------------------------------------|
D|---------------------------------------------------|

Verse: continued
e|--0-----0--0---0-0-0--0----0--0----------3---3---3--3--3--3--3-3-|
B|--1-----1--1---1-1-1--1----1--1---x------3---3---3--3--3--3--3-3-|
G|--2-----2--2---2-2-2--2----2--2---x-0----0---0---0--0--0--0--0-0-|
D|--2-----2--2---2-2-2--2----2--2---x-0----0---0---0--0--0--0--0-0-|
A|--0-----0--0---0-0-0--0----0--0---x------2---2---2--2--2--2--2-2-|
E|---------------0-0-0--0------------------3---3---3--3--3--3--3-3-|

e|--3--3--3------2----x--2--2---2-2-2----2-2-2----0---0-0-0-0-0-0-0|
B|--3--3--3------3----x--3--3---3-3-3----3-3-3----1---1-1-1-1-1-1-1|
G|--0--0--0------2----x--2--2---2-2-2----2-2-2----0---0-0-0-0-0-0-0|
D|--0--0--0------0----x--0--0---0-0-0----0-0-0----2---2-2-2-2-2-2-2|
A|--2--2--2---------------------x-x-x----x-x-x----3---3-3-3-3-3-3-3|
E|--3--3--3---------------------2-2-2----2-2-2----3---3-3-3-3-3-3-3|
                  Guitar 3 plays fill 2 right here^

Fill 2: (1:39) swell volume in rhythm
D|-------------------------------|
B|---5-(5)-(5)-(5)-5~------------|
G|-------------------------------|
D|-------------------------------|
G|-------------------------------|
D|-------------------------------|

Verse: continued
e|--0--0--0--0---0--0-0-0-0-0-0-0-0-0----3---3-3-3-3-3----3-3-3---|
B|--1--1--1--1---1--1-1-1-1-1-1-1-1-1----3---3-3-3-3-3----3-3-3---|
G|--0--0--0--0---2--2-2-2-2-2-2-2-2-2----0---0-0-0-0-0----0-0-0---|
D|--2--2--2--2---2--2-2-2-2-2-2-2-2-2----0---0-0-0-0-0----0-0-0---|
A|--3--3--3--3---0--0-0-0-0-0-0-0-0-0----2---2-2-2-2-2----2-2-2---|
E|--3--3--3--3---------------------------3---3-3-3-3-3----3-3-3---|
               Guitar 3 plays fill 3 here^

Fill 3: w/slide
Guitar 3 
D|-----------------12--------------------------------------------|
B|----------10/12-----------17--\5-------7--7------7-------17----|
G|--12----------------------17--\5-------7--7------7-------------|
D|--------------------------17--\5-------------------------------|
G|---------------------------------------------------------------|
D|---------------------------------------------------------------|
       2nd verse starts here^

D|------------------------12--14--12~----------------------------|
B|------------------10/12----------------12\10--------/7-----7/5-|
G|-17/16--14-----------------------------------12-----/7---------|
D|---------------------------------------------------------------|
G|---------------------------------------------------------------|
D|---------------------------------------------------------------|

D|-------------------------------10------14~----------|
B|--7\5/7--7\5---3/5~~-----8/10-----10~--------10/12--|
G|----------------------------------------------------|
D|----------------------------------------------------|
G|----------------------------------------------------|
D|----------------------------------------------------|

2nd Verse:
e|--0-----0-0-0-0-0-0-0---2---2-2-2-2-2-2-2-2-2---0---0-0-0-0-|
B|--1-----1-1-1-1-1-1-1---3---3-3-3-3-3-3-3-3-3---1---1-1-1-1-|
G|--0-----0-0-0-0-0-0-0---2---2-2-2-2-2-2-2-2-2---0---0-0-0-0-|
D|--2-----2-2-2-2-2-2-2---0---0-0-0-0-0-0-0-0-0---2---2-2-2-2-|
A|--3-----3-3-3-3-3-3-3---x---x-x-x-x-x-x-x-x-x---3---3-3-3-3-|
E|--3--3--3-3-3-3-3-3-3---2---2-2-2-2-2-2-2-2-2---3---3-3-3-3-|

e|--0---0-0-0-0-0---0----0-0-0---0---0-0-0---3--------3~---------|
B|--1---1-1-1-1-1---1----1-1-1---1---1-1-1---3--------3~---------|
G|--0---0-0-0-0-0---2----2-2-2---2---2-2-2---0-----0--0~---------|
D|--2---2-2-2-2-2---2----2-2-2---2---2-2-2---0-----0-----------0-|
A|--3---3-3-3-3-3---0----0-0-0---0---0-0-0---2-----2-------0h2---|
E|--3---3-3-3-3-3----------------------------3--3--3-----3-------|

2nd Guitar Solo: in open G tuning
Guitar 4 (6 string Acoustic) 
E|-------------------------------/14--12--------------------|
B|--/12--/12--12---10h12---12\--------------/12--12--12\/12-|
G|----------------------------------------------------------|
D|----------------------------------------------------------|
G|----------------------------------------------------------|
D|----------------------------------------------------------|

D|---------------------------------------------------12--12------|
B|-11/12-\11/12----12\-----7-------------------10/12--------/12--|
G|---------------------------7------------9----------------------|
D|-------------------------------7h9-----------------------------|
G|---------------------------------------------------------------|
D|---------------------------------------------------------------|
               Guitar 2 plays fill 5 right here^

Fill 5:
e|------3--3-3-3-3-3-3----------------------3--3-3-3---3-3--|
B|------3--3-3-3-3-3-3----------------------3--3-3-3---3-3--|
G|------0--0-0-0-0-0-0-------0--------------0--0-0-0---0-0--|
D|--2-------------------2---------------2-2-----------------|
A|------------------------------2--0------------------------|
E|----------------------------------------------------------|

Fill 5: continued
e|------------3--3-3-3-3-3---3-3-3-3-3--|
B|------------3--3-3-3-3-3---3-3-3-3-3--|
G|------------0--0-0-0-0-0---0-0-0-0-0--|
D|------------0--0-0-0-0-0---0-0-0-0-0--|
A|--0h2-0h2---2--2-2-2-2-2---2-2-2-2-2--|
E|------------3--3-3-3-3-3---3-3-3-3-3--|

Solo 2: continued
D|--12----12\----------14-14--14-12\------------------------12---|
B|----------------12h14----------------/14-14-14-14---10/12------|
G|---------------------------------------------------------------|
D|---------------------------------------------------------------|
G|---------------------------------------------------------------|
D|---------------------------------------------------------------|

D|-------------------------------14--------------/12-|
B|--12\-------10-12\10--10-12/14-----14\12-------/12-|
G|---------12---------12-------------------14--------|
D|---------------------------------------------------|
G|---------------------------------------------------|
D|---------------------------------------------------|

3rd Verse: (2:59)
e|--0----0----0----0---0-0-0-0--2--2--2-2-2-2-2--2--2--2--2-2--|
B|--1----1----1----1---1-1-1-1--3--3--3-3-3-3-3--3--3--3--3-3--|
G|--0----0----0----0---0-0-0-0--2--2--2-2-2-2-2--2--2--2--2-2--|
D|--2----2----2----2---2-2-2-2--0--0--0-0-0-0-0--0--0--0--0-0--|
A|--3----3----3----3---3-3-3-3--x--x--x-x-x-x-x--x--x--x--x-x--|
E|--3----3----3----3---3-3-3-3--2--2--2-2-2-2-2--2--2--2--2-2--|

e|--0--0---0-0----0-0---0-0-0-0----3----3----3-3--3-3--3-3-3-3-|
B|--1--1---1-1----1-1---1-1-1-1----3----3----3-3--3-3--3-3-3-3-|
G|--2--2---2-2----2-2---2-2-2-2----0----0----0-0--0-0--0-0-0-0-|
D|--2--2---2-2----2-2---2-2-2-2----0----0----0-0--0-0--0-0-0-0-|
A|--0--0---0-0----0-0---0-0-0-0----2----2----2-2--2-2--2-2-2-2-|
E|---------------------------------3----3----3-3--3-3--3-3-3-3-|

e|--2--2--2-2-2-2-2---2---2-2---0-----0-0----0---0---0-0-0-----|
B|--3--3--3-3-3-3-3---3---3-3---1-----1-1----1---1---1-1-1-----|
G|--2--2--2-2-2-2-2---2---2-2---0-----0-0----0---0---0-0-0-----|
D|--0--0--0-0-0-0-0---0---0-0---2-----2-2----2---2---2-2-2-----|
A|--x--x--x-x-x-x-x---x---x-x---3-----3-3----3---3---3-3-3-----|
E|--2--2--2-2-2-2-2---2---2-2---3-----3-3----3---3---3-3-3-----|

e|--0---0--0------0--0---0--0--0--0--0--0----3-----------------|
B|--1---1--1------1--1---1--1--1--1--1--1----3--------3----3---|
G|--2---2--2------2--2---2--2--2--2--2--2----0----0---0----0---|
D|--2---2--2------2--2---2--2--2--2--2--2----0----0---0----0---|
A|--0---0--0------0--0---0--0--0--0--0--0----2----2------------|
E|-------------0-----------------------------3----3------------|

e|----------------------3--3-3------3--3--------------3------3-|
B|----------------------3--3-3------3--3-----------3--3------3-|
G|------------------0---0--0-0--0---------0--------0--0------0-|
D|----------0---2---------------2-----------2---0---------0----|
A|-----0h2------------------------------------------------x----|
E|--3-----------------------------------------------------3----|

e|--3---------------------3--3--3-------------------3----3--3--|
B|--3------------------3--3--3--3-----------------3-3----3--3--|
G|---------------------0--0--0--0------0------0---0-0----0-----|
D|--------------0--2----------------2-----2-----------0--------|
A|---------0h2----------------------------------------x--------|
E|------3---------------------------------------------3--------|

e|-----------------3-3-3--3-3-3-3---------------3-3-3--3-3-3---|
B|-----------------3-3-3--3-3-3-3---------------3-3-3--3-3-3---|
G|-----------------0-0-0--0-0-0-0---------------0-0-0--0-------|
D|----------0--2------------------2--0-------2------2----------|
A|-----0h2-----------------------------2--0--------------------|
E|--3----------------------------------------------------------|

e|--------------3-3-3--3-3-3-3-------------------------3-------|
B|--------------3-3-3--3-3-3-3-------------------------3-------|
G|--------------0-0-0--0-0-0-0-------------------------0-------|
D|------0---2-------------------2---0-----------2--2-----------|
A|--0h2---------------------------------2----0-------------0---|
E|-------------------------------------------------------------|

e|---3---------------------3---3-3-3--3-3-3-3-3-3--3--3-3-3-3--|
B|---3---------3-------3---3---3-3-3--3-3-3-3-3-3--3--3-3-3-3--|
G|-------------0----0--0---0---0-0-0--0-0-0-0-0-0--0--0-0-0-0--|
D|------2--0---0----0------0---0-0-0--0-0-0-0-0-0--0--0-0-0-0--|
A|-------------0h2--0------2---2-2-2--2-2-2-2-2-2--2--2-2-2-2--|
E|-------------------------3---3-3-3--3-3-3-3-3-3--3--3-3-3-3--|

e|---------------||
B|---------------||
G|---------------||
D|----------0----||
A|-----0h2-------||
E|--3------------||

Fill 6: (acoustic w/slide)
Guitar 4 (4:06)
D|-----------------------------|
B|-----------------------------|
G|--7---7-9-------7---7--9-----|
D|----9------9--9---9----------|
G|-----------------------------|
D|-----------------------------|

Outro Guitar Solo: (4:10)
Guitar 4
D|---------------------------------------------------|
B|--/12---12\10--------------------------------------|
G|---------------12------------12-/---7---7--9-------|
D|------------------/12--14--14---------9------------|
G|---------------------------------------------------|
D|---------------------------------------------------|

D|------------------12------14\12--------------------|
B|--8---8--10\8/12------12---------\12-------12\10---|
G|----9---------------------------------12/----------|
D|---------------------------------------------------|
G|---------------------------------------------------|
D|---------------------------------------------------|

D|------------------12-12-------12-12-----12-12------|
B|--/12--/12----/12-------10/12-------/12-------/12--|
G|---------------------------------------------------|
D|---------------------------------------------------|
G|---------------------------------------------------|
D|---------------------------------------------------|

D|----------14\--------------12-------12--------12-12|
B|--\10/14------------10/12-----12/14-----10/12------|
G|---------------------------------------------------|
D|---------------------------------------------------|
G|---------------------------------------------------|
D|---------------------------------------------------|

D|---------------------------------------------------|
B|---------------------------------------------------|
G|-----12\11-12\11-12--12\11-12-14-14--14\-----------|
D|--12-----------------------------------------------|
G|---------------------------------------------------|
D|---------------------------------------------------|

Guitar 2
e|--3----3-----3---3-3-3-3-------3-----3--3-3----------|
B|--0--0-3-----3---3-3-3-3-----3-3-----3--3-3----------|
G|--0--0-0-----0---0-0-0-0-----0-0-----0--0------------|
D|--0--0-------0---0-0-0-0---0------0----------------0-|
A|--2----------2---2-2-2-2----------x------------0h2---|
E|--3-------3--3---3-3-3-3----------3----------3-------|

e|--------3--3-3-3-3-----------3--------3--------------|
B|-----3--3--3-3-3-3---------3-3-----3--3--------------|
G|-----0--0--0-0-0-0---0-----0-0-----0-----------------|
D|--2----------------2---2-0------0-------------0--2---|
A|--------------------------------x---------0h2--------|
E|--------------------------------3-------3------------|

e|--3-3-3--3-3-3-3-----------------3------3--3---------||
B|--3-3-3--3-3-3-3---------------3-3------3--3---------||
G|--0-0-0--0-0-0-0---------------0-0------0------------||
D|------------------2--0------0-------0--------------0-||
A|------------------------2-----------x----------0h2---||
E|------------------------------------3--------3-------||

There we go, should be about perfect.





Comments


Popular Pink Floyd tabs & chords
Heart Of Sun Bass Tabs
Pigs Three Different Ones Bass Tabs
Bravery Of Being Out Of Range Chords
Eclipse 2 Chords
Pigs Chords
Fearless 2 Tabs
Money Tabs
Money 3 Tabs
The Happiest Days Of Our Lives Tabs
More Ukulele


Song lyrics



↑ Back to top | Tablatures and chords are parodies/interpretations of the original songs. You may use it for private study, scholarship, research or language learning purposes only
© 2014 AZChords.com Contact us | Privacy policy | DMCA | Add/correct tabs | Request tabs | Top 50 tabs