» » »

Pink Floyd, Wish You Were Here Tabs (ver.5)

Artists:  A B C D E F G H I J K L M N O P Q R S T U V W X Y Z # 

Wish You Were Here Tabs (ver.5)

Pink Floyd Tabs
Rating:
0/5 (0 votes)
Hard to play? Try these video lessons and learn fast.
                (Intro)
Wish you were here
Pink Floyd
                                              Do this on the last
gtr. 2		                              time through before 
                                              strumming Gsus
e--------------3--3-3-----------3--3-3----- ---------------------
b--------------3--3-3-----------3--3-3----- ---------------------
g--------------0--0-0-----------0--0-0----- ---------------------
d---------0-2--2--2-2--0--------0--0-0----- ---------------------
a-----0h2-----------------2--0------------- -------0h2-0h2-------
e--3--------------------------------------- ----3----------3-----
he does this a few times and then strums a Gsus chord
a few times before repeating this same picking pattern
then the lead guitar joins in for an intro/solo that goes like this

gtr. 1

e-------------------------------------3/5-3----------------------
b------3~~-5----3~~-------------------3/5-3-3/5-3---0------------
g--2/4--------4-----2p0---------------------2/4-2p0-0------------
d-----------------------2-0-----0-0------------------------------
a----------------------------/2----------------------------------
e----------------------------------------------------------------

e----------------------------------------------------------------
b------3----5~~-5^(5)p3---3---------3--5-------------------------
g--2/4----4-------------4----2~~-4^------4^-2~~------------------
d----------------------------------------------------------------
a----------------------------------------------------------------
e----------------------------------------------------------------

e----------------------------------------------------------------
b------3----5~~-5^-5-p3---3--------------------------------------
g--2/4----4-------------4----2~~-4^(4)-2~~~~---------------------
d----------------------------------------------------------------
a----------------------------------------------------------------
e----------------------------------------------------------------

i'm not sure of the rest of the song and this may not be 100% accurate
but it's pretty close and it sounds good anyway so it's enough to get
you started on it
            

comments powered by Disqus
↑ Back to top | Pink Floyd Tabs for Wish You Were Here. Lyrics for acoustic guitar and electric guitar. Tablatures and chords are parodies/interpretations of the original songs. You may use it for private study, scholarship, research or language learning purposes only