» » »

Pink Floyd, Wish You Were Here Tabs (ver.6)

Artists:  A B C D E F G H I J K L M N O P Q R S T U V W X Y Z # 

Wish You Were Here Tabs (ver.6)

Pink Floyd Tabs
 Rating:
4/5 (4 votes)
Wish You Were Here lessons Tabs too difficult? Try these video lessons and learn fast
                Hi!

This is the first solo off Wish You Were Here by Pink Floyd.

I Bet you $10 you can learn this in 5 minutes.

----------------------------------------------------------------------------|
------------3------5-------3------------------------------------------------|
---2 / 4---------------4----------4p 2p 0 ----------------------------------|
-------------------------------------------0---------------0-0--------------|
--------------------------------------------------------/2------------------|
----------------------------------------------------------------------------|


--3 / 5-----5 / 3-----------------------------------------------------------|
--3 / 5-----5 / 3-------3 / 5-----5 / 3------------3 / 5-----5 / 3----------|
------------------------2 / 4-----4 / 2 p 0--------2 / 4-----4 / 2 p 0---0--|
----------------------------------------------------------------------------|
----------------------------------------------------------------------------|
----------------------------------------------------------------------------|


---------------------------(------------------------------------------------|
-------------3---5----------5p3-----3---------)---3--5------)---------------|
---2 / 4-------4------------------4---2------4-------------4---2------------|
----------------------------------------------------------------------------|
----------------------------------------------------------------------------|
----------------------------------------------------------------------------|


----------------------------)--(--------------------------------------------|
---------------3---5-------5----5---3---5------------)--(-------------------|
----2  /  4------4---------------------------2------4----(4)----2-----------|
----------------------------------------------------------------------------|
----------------------------------------------------------------------------|
----------------------------------------------------------------------------|

(Then Return To G...)


By the way, just in case.

Verse:

C D Am G

D C Am G
            
Submit corrections

comments powered by Disqus
↑ Back to top | Pink Floyd Tabs for Wish You Were Here. Lyrics for acoustic guitar and electric guitar. Tablatures and chords are parodies/interpretations of the original songs. You may use it for private study, scholarship, research or language learning purposes only