» » »

Waiting For The Worms Chords (ver.2)

Artists:  A B C D E F G H I J K L M N O P Q R S T U V W X Y Z # 

Waiting For The Worms Chords (ver.2)

Pink Floyd
Rating:
0/5 (0 votes)

Tabs too difficult? Try these video lessons and learn fast.
                                               Waiting for the Worms
                                      Pink Floyd




G    C

G                         C
Ooooh you cannot reach me now        
G                       C
Ooooh no matter how you try
D                        C
Goodbye cruel world it's over        
        G
Walk on by
G                               G/B C   C C/B    Am
Sitting in a bunker here behind my wall 
Am               G        C
Waiting for the worms to come
G                                G/B C    C C/B   Am
In perfect isolation here behind my wall 
                G         C
Waiting for the worms to come
Am
Waiting to cut out the deadwood
Am
Waiting to clean up the city
Am         G          Am
Waiting to follow the worms
Am
Waiting to put on a black shirt
Am
Waiting to weed out the weaklings
Am
Waiting to smash in their windows
Am
And kick in their doors
Am
Waiting for the final solution
Am
To strengthen the strain
Am         G          Am
Waiting to follow the worms
Am       
Waiting to turn on the showers and fire the ovens
Am
Waiting for the queers and the coons
Am
And the reds and the Jews
Am         G          Am
Waiting to follow the worms
G                    
Would you like to see Britannia
G    G/BC     C       C C/B
Rule again my friend
Am                     G
All you have to do is follow the worms

Emx2
e|---------------------------------------------------------------------------|
B|---------------------------------------------------------------------------|
G|---------------------------------------------------------------------------|
D|--2-----4----5-----4-------------------------------------------------------|
A|--2-----4----5-----4-------------------------------------------------------|
E|--0-----2----3-----2------------------------------------------------------|





G
Would you like to send our coloured cousins
G    G/B C C          C C/B Am
Home again my friend
Am                     G         
All you need to do is follow the worms.




Em  (play until fades)
e|---------------------------------------------------------------------------|
B|---------------------------------------------------------------------------|
G|---------------------------------------------------------------------------|
D|--2-----4----5-----4-------------------------------------------------------|
A|--2-----4----5-----4-------------------------------------------------------|
E|--0-----2----3-----2------------------------------------------------------|
 
            
Tabs too difficult? Try these video lessons and learn fast.




comments powered by Disqus
↑ Back to top | Tablatures and chords are parodies/interpretations of the original songs. You may use it for private study, scholarship, research or language learning purposes only