» » »

Time Bass tabs (ver.1)

Artists:  A B C D E F G H I J K L M N O P Q R S T U V W X Y Z # 

Time Bass tabs (ver.1)

Pink Floyd
Rating:
0/5 (0 votes)

Hard to play? Try these video lessons and learn fast.
                (2)
Intro-

G---------------------------------------------------------
D---------------------------------------------------------
A---------------------------------------------------------
E-0~----2~----0~----2~----0~----2~----0~----2~----5~----0~

Ticking Away...

G------------------------------------------------------------------------
D-4-4-2-4--2-4--2-4-5--6-7---------77---7--2-2-0-2--0-2--0-22--44--------
A----------------------------77--7----7----------------------------4----4
E--------------------------5----------------------------------------2--2-

Tired Of...
G---------------------------------------------------
D---------------------------------------------------
A-5--55-5-------5-55-5------53-33-3------3-33-3-----
E---------5-55---------5-55---------3-33--------3-33
            
Hard to play? Try these video lessons and learn fast. | Correct




comments powered by Disqus
↑ Back to top | Tablatures and chords are parodies/interpretations of the original songs. You may use it for private study, scholarship, research or language learning purposes only