» » »

The Thin Ice Tabs (ver.1)

Artists:  A B C D E F G H I J K L M N O P Q R S T U V W X Y Z # 

The Thin Ice Tabs (ver.1)

Pink Floyd
Rating:
0/5 (0 votes)

Hard to play? Try these video lessons and learn fast.
                Pink Floyd
                               ----------
                              The Thin Ice
                             by Roger Waters


Notes:

X = muted  \ = slide down or dive  B = bend
R = release  P = pull-off  ~~ = vibrate

                  Verse 1
                  w/piano & synthesizer
                   bass
                   C           Am7           Fmaj9       G6
|               ||-------------------------|-------------------------|
| [baby crying] ||-------------------------|-------------------------|
|               ||-3-----------0-----------|-------------------------|
|               ||-------------------------|-1-----------3-----------|


  C           Am7           Fmaj9       G6
|-------------------------|-------------------------|
|-------------------------|-------------------------|
|-3-----------0-----------|-------------------------|
|-------------------------|-1-----------3-----------|


  C     G     F     C/G     Am7
|-------------------------|-------------------------|
|-------5---5-3---3-5---5-|-------2---2-------------|
|-3---3-------------------|-0---0-------0-----------|
|-------------------------|-------------------------|


  C     G     F     C/G     Am9
|-------------------------|---------------------12--12--12-12-11--11--\-|
|-------5---5-3---3-5---5-|---------------------------------------------|
|-3---3-------------------|-0-------------------------------------------|
|-------------------------|---------------------------------------------|


  C     G     F     C/G     Am    D/F#  G
|-------------------------|---------------------2-4-||
|-------5---5-3-----2---0-|-2-----4-----5-----5-----||
|-3---3-------------------|-------------------------||
|-------------------------|-------------------------||
 Verse 2
 w/piano & organ
  C           Am            F           G
|-------------2-------2-0-|-------------------------|
|-------------------------|-3-------3-4-------------|
|-3-----------------------|---------------------0-2-|
|-------------------------|-------------3-----3-----|


  C           Am            F           G
|---------5-4-2-------2-0-|---------5-7-------------|
|-------------------------|-3-----3-----5-------5-3-|
|-3-----------------------|-------------------------|
|-------------------------|-------------------------|


  C           Am            F           G
|-------------------9-----|---------------------2-4-|
|---------5---7-------7-5-|-3-------3-4-5-----5-----|
|-3---------3-------------|-------------------------|
|-------------------------|-------------------------|


  C     Em    Am            F                 G      drums enter
|-------------------------|-------------------------------------||
|-------------------------|-------------------------------------||
|-3-----2-----0---------3-|-------------------------------------||
|-------------------------|-1-----------------3-----------------||

 Guitar solo
  gtr. 1
|-----------------------------------------------------------------|
|-----------------------------------------------------------------|
|-7B(9)---R---(7)-7~~~~~~~~~~~~~~~7B(10)--R---(7)-7B(9)-----------|
|-----------------------------------------------------------------|
|-----------------------------------------------------------------|
|-----------------------------------------------------------------|
|
| gtr. 2
|-----------------------------------------------------------------|
|-----------------------------------------------------------------|
|-9---------------7---------X-X-X-10--------------9---------------|
|-9---------------7---------X-X-X-10--------------9---------------|
|-7---------------5---------X-X-X-8---------------7---------------|
|----------------------------------------------------------X-12\--|
|
| bass
|-----------------------------------------------------------------|
|-----------------------------------------------------------------|
|-7---------------5---------------8---------------7---------------|
|-----------------------------------------------------------------|


                                                              w/bar
|-----------------5---5----------------------------------------------|
|---------------5---8------------------------------------------------|
|----------7B(9)--------7-7B(8)R(7)P5---5----------------------------|
|-------------------------------------7---7-6-5----------------------|
|-----------------------------------------------7-6-5-3---3--\(0)/-\-|
|-------------------------------------------------------5------------|
|
|                                                         *   w/bar
|--------------------------------------------------------------------|
|--------------------------------------------------------------------|
|-2------------------------------------------------------------------|
|-2------------------------------------------------------------------|
|-0------------------------------------------------------------------|
|--------------------------------------------------------(-12)/----0-|
| *depress bar equivalent to 12 frets down, strike note & slowly release
|
|--------------------------------------------------------------------|
|--------------------------------------------------------------------|
|-0------------------------------------------------------------------|
|--------------------------------------------------------------------|



|-----------------------------------------------------------------|
|-----------------------------------------------------------------|
|-----------------7---7---------------------------9---9-----------|
|-----------------7---7---------------------------9---9-----------|
|-7~~~~~~~~~~~~~~~5---5-----------8~~~~~~~~~~~~~~~7---7-----------|
|------------------------------------------------------------12\--|
|
|
|-----------------------------------------------------------------|
|-----------------------------------------------------------------|
|-9---------------7---------------10--------------9---9-----9-9\--|
|-9---------------7---------------10--------------9---9-----9-9\--|
|-7---------------5---------------8---------------7---7-----7-7\--|
|-----------------------------------------------------------------|
|
|
|-----------------------------------------------------------------|
|-----------------------------------------------------------------|
|-7---------------5---------------8---------------7---------------|
|-----------------------------------------------------------------|



|----------------17------------------17------17------17------------17---|
|-------------17----20-17-20-20B(22)~--20B(22)-20B(22)-20B(22)-20B(22)~~|
|-2----19B(21)----------------------------------------------------------|
|-2---------------------------------------------------------------------|
|-0---------------------------------------------------------------------|
|-----------------------------------------------------------------------|
|
|
|-----------------------------------------------------------------------|
|-----------------------------------------------------------------------|
|-2---------------------------2------2----------------------------------|
|-2---------------------------2------2----------------------------------|
|-0---------------------------0------0----------------------------------|
|--------------------------------3B(5)----------------------------------|
|
|
|-----------------------------------------------------------------------|
|-----------------------------------------------------------------------|
|-0---------------------------0------0----------------------------------|
|--------------------------------3--------------------------------------|



|---------------------------------------------------------------------|
|-15B(17)--R--(15)-15~~~~~~~~~~~~~~~15B(18)--R--(15)--15B(17)~~~~~~~~~|
|---------------------------------------------------------------------|
|---------------------------------------------------------------------|
|---------------------------------------------------------------------|
|---------------------------------------------------------------------|
|
|
|---------------------------------------------------------------------|
|---------------------------------------------------------------------|
|-9----------------7----------------10----------------9---------------|
|-9----------------7----------------10----------------9---------------|
|-7----------------5----------------8-----------------7---------------|
|---------------------------------------------------------------------|
|
|
|---------------------------------------------------------------------|
|---------------------------------------------------------------------|
|-7----------------5----------------8-----------------7---------------|
|---------------------------------------------------------------------|


                            rake-]
|--------------------------------15-17B(19)-----------------------------|
|-15B(17)--R--(15)-15~~~~~~~~--15---------------------------------------|
|----------------------------16-----------------------------------------|
|-----------------------------------------------------------------------|
|-----------------------------------------------------------------------|
|-----------------------------------------------------------------------|
|
|
|-----------------------------------------------------------------------|
|-----------------------------------------------------------------------|
|-9----------------10---------------12----------------------------------|
|-9----------------10---------------12----------------------------------|
|-7----------------8----------------10----------------------------------|
|-----------------------------------------------------------------------|
|
|
|-----------------------------------------------------------------------|
|-----------------------------------------------------------------------|
|-7----------------8----------------10----------------------------------|
|-----------------------------------------------------------------------|


                                  fade out
|-----------------------------------------------------------------||
|-17--------------------------------------------------------------||
|-17--------------------------------------------------------------||
|-17--------------------------------------------------------------||
|-15--------------------------------------------------------------||
|-----------------------------------------------------------------||
|
|
|-----------------------------------------------------------------||
|-----------------------------------------------------------------||
|-----------------------------------------------------------------||
|-10--------------------------------------------------------------||
|-10--------------------------------------------------------------||
|-8---------------------------------------------------------------||
|
|
|-----------------------------------------------------------------||
|-----------------------------------------------------------------||
|-----------------------------------------------------------------||
|-8---------------------------------------------------------------||


Verse 1
 Momma loves her baby
 And daddy loves you too
 And the sea may look warm to you babe
 And the sky may look blue
 Ooooh babe
 Ooooh baby blue
 Ooooh babe

Verse 2
 If you should go skating
 On the thin ice of modern life
 Dragging behind you the silent reproach
 Of a million tear stained eyes
 Don't be surprised when a crack in the ice
 Appears under your feet
 You slip out of your depth and out of your mind
 With your fear flowing out behind you
 As you claw the thin ice
            
Hard to play? Try these video lessons and learn fast. | Correct




comments powered by Disqus
↑ Back to top | Tablatures and chords are parodies/interpretations of the original songs. You may use it for private study, scholarship, research or language learning purposes only