» » »

The Hard Way Bass tabs (ver.1)

Artists:  A B C D E F G H I J K L M N O P Q R S T U V W X Y Z # 

The Hard Way Bass tabs (ver.1)

Pink Floyd
Rating:
0/5 (0 votes)

Hard to play? Try these video lessons and learn fast.
                After the huge success of The Dark Side of the Moon, Pink Floyd was unsure about how to
top that record's huge popularity. They decided, then, to return to their experimental
beginnings by trying to create an entire album using only sounds produced by common 
household objects, thus the name "Household Objects" project.

Their unconventional instruments in the Household Objects project consisted of old hand
mixers, aerosol spray cans, rubber bands stretched between two tables, tape, wine
glasses and bottles, and others.

Only two tracks recorded at these sessions, "The Hard Way", and "Wine Glasses".

The Hard Way
By Pink Floyd
Household Objects
1973

Song is in Eb.


B|--------------------------|
D|------------5-5-----------|
A|--------5h7-----5h7-------|
E|--0--------------------3--|

B|-------------------------------------------------------|
D|-------5-5-------------5-------5h7-----5h7-----5h7-----|
A|---5h7-----5h7---5h7-----5h7---------------------------|
E|----------------------------------------------------8--|

B|--------------------------------------------------------------|
D|-------5-5-------------5--------------------------------------|
A|---5h7-----5h7---5h7-----5h7-7-5--3--3--3--3--3--3--7--5------|
E|---------------------------------------------------------8-7--|
            
Hard to play? Try these video lessons and learn fast. | Correct




comments powered by Disqus
↑ Back to top | Tablatures and chords are parodies/interpretations of the original songs. You may use it for private study, scholarship, research or language learning purposes only