» » »

Pink Floyd, Happiest Days Of Our Lives Tabs (ver.1)

Artists:  A B C D E F G H I J K L M N O P Q R S T U V W X Y Z # 

Happiest Days Of Our Lives Tabs (ver.1)

Pink Floyd Tabs
Rating:
0/5 (0 votes)
Happiest Days Of Our Lives lessons Tabs too difficult? Try these video lessons and learn fast
                "Start with helicopter
and go into this when done

Palm Mute and us alternative picking
E-----------------|-----------------|
B-----------------|-----------------|
G-----------------|-----------------|
D-0000000000000000|-000000000000000-|
A-----------------|-----------------|
E-----------------|-----------------|

E-----------------|-----------------|
B-----------------|-----------------|
G-----------------|-----------------|
D-0000000000000000|-000000000000000-|
A-----------------|-----------------|
E-----------------|-----------------|
Palm Mute
E-----------------|------------------|
B-----------------|------------------|
G-----------------|------------------|
D-----------------|------------------|
A-5-5-3-1---------|------------------|
E---------0--3----|-3333333333333333-|


E-----------------|-----------------|
B-----------------|-----------------|
G-----------------|-----------------|
D-----------------|-----------------|
A-----------------|-----------------|
E-3333333333333333|-3333333333333333|


E-----------------|------------------|
B-----------------|------------------|
G-----------------|------------------|
D-----------------|------------------|
A-----------------|-0000000000000000-|
E-3333333333333333|------------------|


E-----------------|-----------------|
B-----------------|-----------------|
G-----------------|-----------------|
D-----------------|-----------------|
A-0000000000000000|-0000000000000000|
E-----------------|-----------------|


E-----------------|-----------------|
B-----------------|-----------------|
G-----------------|-----------------|
D-----------------|-----------------|
A-0000000000000000|-3333333333333333|
E-----------------|-----------------|

E-----------------|-----------------|
B-----------------|-----------------|
G-----------------|-----------------|
D-----------------|-----------------|
A-0000000000000000|-0000000000000000|
E-----------------|-----------------|

E-----------------|-----------------|
B-----------------|-----------------|
G-----------------|-----------------|
D-----------------|-----------------|
A-----------------|-0000000000000000|
E-1111111111111111|-----------------|

E-----------------|-----------------|
B-----------------|-----------------|
G-----------------|-----------------|
D-----------------|-----------------|
A-----------------|-0000000000000000|
E-0000000000000000|-----------------|

E-----------------|-----------------|
B-----------------|-----------------|
G-----------------|-----------------|
D-----------------|-----------------|
A-0000000000000000|-5555555555555531|
E-----------------|-----------------|

E-----------------|-----------------|
B-----------------|-----------------|
G-----------------|-----------------|
D-----------------|-----------------|
A-111111111111110-|-----------------|
E----------------3|-3333333333333333|

E-----------------|
B-----------------|
G-----------------|
D-----------------|
A-3333333333333333|
E-----------------|

E-----------------|-----------------|
B-----------------|-----------------|
G-----------------|-3~--------------|
D-3~--------------|-3~--------------|
A-3~--------------|-1~--------------|
E-1~--------------|-----------------|

E-----------------|-----------------|
B-----------------|-----------------|
G-----------------|-3~--------------|
D-3~--------------|-3~--------------|
A-3~--------------|-1~--------------|
E-1~--------------|-----------------|

E-----------------|-----------------|
B-----------------|-----------------|
G-----------------|-3~--------------|
D-3~--------------|-3~--------------|
A-3~--------------|-1~--------------|
E-1~--------------|-----------------|

E-----------------|-----------------|
B-----------------|-----------------|
G-5~--------------|-5~--------------|
D-5~--------------|-5~--------------|
A-3~--------------|-3~--------------|
E-----------------|-----------------|


and then the song leads into

Another Brick in the Wall Part 2

I played this in a tribute concert

so it sounds pretty good enjoy
"            
Submit corrections

comments powered by Disqus
↑ Back to top | Pink Floyd Tabs for Happiest Days Of Our Lives. Lyrics for acoustic guitar and electric guitar. Tablatures and chords are parodies/interpretations of the original songs. You may use it for private study, scholarship, research or language learning purposes only