» » »

Take It Back Bass tabs (ver.1)

Artists:  A B C D E F G H I J K L M N O P Q R S T U V W X Y Z # 

Take It Back Bass tabs (ver.1)

Pink Floyd
Rating:
0/5 (0 votes)

Hard to play? Try these video lessons and learn fast.
                
                               Take It Back 
                                Pink Floyd
                             The Division Bell

Intro:             
G||-------------||-------------|-------------|-------------|------------|
D||-*---------*-||-------------|-------------|-------------|------------|
A||-*---------*-||-------------|-------------|-------------|------------|
E||-------------||--3----------|-(3)---------|-(3)---------|-(3)--------|

G|-------------|-------------|-------------|------------|
D|-------------|-------------|-------------|------------|
A|--3----------|-(3)---------|-(3)---------|-(3)--------|
E|-------------|-------------|-------------|------------|

G|-------------|-------------|-------------|------------|
D|-------------|-------------|-------------|------------|
A|--3----------|-(3)---------|-------------|------------|
E|-------------|-------------|--3----------|-(3)--------|

G|--------------|--------------|--------------|--------------|
D|--------------|--------------|--------------|--------------|
A|--3-----------|-(3)-----/5---|--------------|--------------|
E|--------------|--------------|--3-----------|-(3)----------|

G|--------------|--------------|--------------|--------------|
D|--------------|--------------|-----5-----5--|-----5-----5--|
A|--3-----------|-(3)----/5-/5-|--------------|--------------|
E|--------------|--------------|--3-----3-----|--3-----3-----|

G|--------------|-----------------|
D|-----5-----5--|-----5-----------|
A|--------------|-----------------|
E|--3-----3-----|--3----3-3-0-1-2-|

1st verse:
G|--------------|--------------|--------------|----------------|
D|-----5-----5--|-----5-----5--|-----5-----5--|-----5-----5----|
A|--------------|--------------|--------------|-------------5--|
E|--3-----3-----|--3-----3-----|--3-----3-----|--3-----3-------|

G|--------------|--------------|--------------|----------------|
D|-----5-----5--|-----5-----5--|-----5-----5--|-----5------2-0-|
A|--------------|--------------|--------------|----------------|
E|--3-----3-----|--3-----3-----|--3-----3-----|--3-----3-------|

G|------------------|-----------------|-----------------|----------------|
D|------------------|-----------------|-----------------|----------------|
A|--3-3-3-3-3-3-3-3-|-3-3-3-3-3-3-3---|-3-3-3-3-3-3-3-3-|-3-3-3-3-/3--/5-|
E|------------------|---------------3-|-----------------|----------------|

G|--------------|---------------|---------------|------------------|
D|-----5-----5--|-----5-----5---|-----5------5--|--------------0-2-|
A|--------------|---------------|---------------|--------0-2-3-----|
E|--3-----3-----|--3-----3----0-|--3------3-----|--3---------------|

1st chorus:
G|--------------|---------------|---------------|---------------|
D|--3---------3-|-3-------------|-2-----------2-|-2-------------|
A|--------------|---------------|---------------|---------------|
E|--------------|---------------|---------------|---------------|

G|--------------|---------------|---------------|-------------------|
D|-----5-----5--|-----5-----5---|------5------5-|------5------------|
A|--------------|-------------5-|---------------|-------------------|
E|--3-----3-----|--3-----3------|--3-------3----|--3------3-3-0-1-2-|

2nd verse:
G|--------------|--------------|--------------|----------------|
D|-----5-----5--|-----5-----5--|-----5-----5--|-----5-----5----|
A|--------------|--------------|--------------|-------------5--|
E|--3-----3-----|--3-----3-----|--3-----3-----|--3-----3-------|

G|--------------|--------------|--------------|----------------|
D|-----5-----5--|-----5-----5--|-----5-----5--|-----5------2-0-|
A|--------------|--------------|--------------|----------------|
E|--3-----3-----|--3-----3-----|--3-----3-----|--3-----3-------|

G|------------------|-----------------|-----------------|----------------|
D|------------------|-----------------|-----------------|----------------|
A|--3-3-3-3-3-3-3-3-|-3-3-3-3-3-3-3---|-3-3-3-3-3-3-3-3-|-3-3-3-3-/3--/5-|
E|------------------|---------------3-|-----------------|----------------|

G|--------------|---------------|---------------|------------------|
D|-----5-----5--|-----5-----5---|-----5------5--|--------------0-2-|
A|--------------|---------------|---------------|--------0-2-3-----|
E|--3-----3-----|--3-----3----0-|--3------3-----|--3---------------|

2nd chorus:
G|--------------|---------------|---------------|---------------|
D|--3---------3-|-3---------/5--|-2-----------2-|-2-------------|
A|--------------|---------------|---------------|---------------|
E|--------------|---------------|---------------|---------------|

G|--------------|---------------|---------------|-------------------|
D|-----5-----5--|-----5-----5---|------5------5-|------5------------|
A|--------------|-------------5-|---------------|----------7-7-7-5--|
E|--3-----3-----|--3-----3------|--3-------3----|--3----------------|

Guitar solo:
G|-------------|-------------|-------------|--------------|
D|-------------|-------------|-------------|--------------|
A|--3----------|-(3)---------|-------------|--------------|
E|-------------|-------------|--3----------|-(3)----------|

G|-------------|-------------|-------------|--------------|
D|-------------|-------------|-------------|--------------|
A|--3----------|-(3)----/5---|-------------|--------------|
E|-------------|-------------|--3----------|-(3)----------|

G|-------------|-------------|-------------|--------------|
D|-------------|-------------|-------------|--------------|
A|--3----------|-(3)---------|-------------|--------------|
E|-------------|-------------|--3----------|-(3)----------|

G|-------------|-------------|-------------|--------------|
D|-------------|-------------|-------------|--------------|
A|--3----------|-(3)---------|-------------|--------------|
E|-------------|-------------|--3----------|-(3)----------|

G|-------------|-------------|-------------|--------------|
D|-------------|-------------|-------------|--------------|
A|--3----------|-(3)----/5---|-------------|--------------|
E|-------------|-------------|--3----------|-(3)----------|

G|-------------|-------------|-------------|--------------|
D|-------------|-------------|-------------|--------------|
A|--3----------|-(3)----/5---|-------------|--------------|
E|-------------|-------------|--3----------|-(3)----------|

G|-------------|-------------|-------------|--------------|
D|-------------|-------------|-------------|--------------|
A|--3----------|-(3)----/5---|-------------|--------------|
E|-------------|-------------|--3----------|-(3)----------|

G|-------------|-------------|-------------|--------------|
D|-------------|-------------|----5-----5--|----5-----5---|
A|--3----------|-(3)----/5---|-------------|------------5-|
E|-------------|-------------|--3-----3----|--3-----3-----|

G|--------------|------------------|
D|-----5-----5--|-----5------------|
A|--------------|------------------|
E|--3-----3-----|--3-----3-3-0-1-2-|

3rd verse:
G|--------------|--------------|--------------|-------------|
D|-----5-----5--|-----5-----5--|-----5-----5--|-----5---5-5-|
A|--------------|--------------|--------------|-------------|
E|--3-----3-----|--3-----3-----|--3-----3-----|--3-----3-3--|

G|--------------|---------------|--------------|----------------|
D|-----5-----5--|-----5-----5---|-----5-----5--|-----5------2-0-|
A|--------------|-------------5-|--------------|----------------|
E|--3-----3-----|--3-----3------|--3-----3-----|--3-----3-------|

G|------------------|-----------------|-----------------|----------------|
D|------------------|-----------------|-----------------|----------------|
A|--3-3-3-3-3-3-3-3-|-3-3-3-3-3-3-3---|-3-3-3-3-3-3-3-3-|-3-3-3-3-/3--/5-|
E|------------------|---------------3-|-----------------|----------------|

G|--------------|---------------|--------------|-----------------|
D|-----5-----5--|-----5-----5---|-----5-----5--|-----5-------0-2-|
A|--------------|-------------5-|--------------|-------0-2-3-----|
E|--3-----3-----|--3-----3------|--3-----3-----|--3--------------|

3rd chorus:
G|--------------|---------------|---------------|---------------|
D|--3---------3-|-3-------------|-2-----------2-|-2-------------|
A|--------------|---------------|---------------|---------------|
E|--------------|---------------|---------------|---------------|

G|--------------|---------------|--------------|------------------|
D|-----5-----5--|-----5-----5---|------5-----5-|------5-------0-2-|
A|--------------|-------------5-|--------------|--------0-2-3-----|
E|--3-----3-----|--3-----3------|--3-----3-----|--3---------------|

G|--------------|---------------|---------------|---------------|
D|--3---------3-|-3---------/5--|-2-----------2-|-2-------------|
A|--------------|---------------|---------------|---------------|
E|--------------|---------------|---------------|---------------|

G|--------------|--------------|--------------|-----------------|
D|-----5-----5--|-----5-----5--|-----5-----5--|-----5-------0-2-|
A|--------------|--------------|--------------|-------0-2-3-----|
E|--3-----3-----|--3-----3-----|--3-----3-----|--3--------------|

G|--------------|---------------|---------------|---------------|
D|--3---------3-|-3---------/5--|-2-----------2-|-2-------------|
A|--------------|---------------|---------------|---------------|
E|--------------|---------------|---------------|---------------|

Outro:
G|--------------|---------------|---------------|---------------|
D|--------------|---------------|---------------|---------------|
A|--3-----------|-(3)-----------|---------------|---------------|
E|--------------|---------------|--3------------|-(3)-----------|

G|--------------|---------------|---------------|---------------|
D|--------------|---------------|---------------|---------------|
A|--3-----------|-(3)-------/5--|---------------|---------------|
E|--------------|---------------|--3------------|-(3)-----------|

G|--------------|---------------|---------------|------------------|
D|--------------|---------------|---------------|-----------5h7p5--|
A|--3-----------|-(3)-----------|---------------|-------5h7--------|
E|--------------|---------------|--3------------|-(3)-3------------|

G|--5-----------|-(5)-----/7----|---------------|
D|--------------|---------------|---------------|
A|--------------|---------------|---------------|
E|--------------|---------------|--3------------|

That`s it!
            
Hard to play? Try these video lessons and learn fast. | Correct




comments powered by Disqus
↑ Back to top | Tablatures and chords are parodies/interpretations of the original songs. You may use it for private study, scholarship, research or language learning purposes only