>
 >
Sorrow Live

Sorrow Live Bass Tabs

Pink Floyd - Sorrow Live chords, tabs, tablatures, lyrics

Guitar lessons | Add/correct | Request | Top 50 tabs Artists:  A B C D E F G H I J K L M N O P Q R S T U V W X Y Z 0-9

Sorrow Live Bass Tabs – Pink Floyd

CD, Sheet music, Poster

Do you like Sorrow Live? Share with your friends now
Bass Tabs
----------------------------------------------------------------------------

			   Sorrow Live - Pink Floyd
                                  (Gilmour)

----------------------------------------------------------------------------


Tuning: standard
----------------------------------------------------------------------------



|---------------------------| 
|---------------------------|    2X
|---7----7--7----5--5-------|
|---------------------------|


|---------------------------|
|---------------------------|    
|---7----7--7---------------|
|------------------12-------|


|----------------------12--11h--------------------------|
|-------------12--9--------------12--9h--14--12--9--7---|
|---14---12h--------------------------------------------|
|-------------------------------------------------------|


|----------------------------|
|----------------------------|
|--7------7---7-------5--7h--|
|----------------------------|


|----------------------------|
|---5---4--------------------|
|----------7---5---7-------5-|
|----------------------7-----|


|---------------------------| 
|---------------------------|
|---7----7--7----5--5-------|
|---------------------------|


|-----------------------------|
|--------------------7----5---|
|--7-----7--7----7------------|
|-----------------------------|


|----------------------------|
|----------------------------|
|--7------7---7-------5--7h--|
|----------------------------|


|----------------------------|
|---5---4--------------------|
|----------7---5---7-------5-|
|----------------------7-----|


|---------------------------| 
|---------------------------|
|---7----7--7----5--5-------|
|---------------------------|


|-----------------------------|
|--------------------7----5---|
|--7-----7--7----7------------|
|-----------------------------|


|---------------------------| 
|---------------------------|
|---7----7--7----5--5-------|
|---------------------------|


|---------------------------| 
|---------------------------|
|---7----7--7----5----------|
|---------------------------|

The sweet smell of a great sorrow
|----------------------------|
|----------------------------|
|--7------7---7-------5--7h--|
|----------------------------|

lies over the land
|----------------------------|
|---5---4--------------------|
|----------7---5---7-------5-|
|----------------------7-----|

Plumes of smoke rise and merge into the 
|---------------------------| 
|---------------------------|
|---7----7--7----5--5-------|
|---------------------------|

the leaden sky:
|-----------------------------|
|--------------------7----5---|
|--7-----7--7----7------------|
|-----------------------------|

A man lies and dreams of green fields
|----------------------------|
|----------------------------|
|--7------7---7-------5--7h--|
|----------------------------|

and rivers,
|----------------------------|
|---5---4--------------------|
|----------7---5---7-------5-|
|----------------------7-----|

But awakes to a morning with no reason for waking 
|---------------------------| 
|---------------------------|
|---7----7--7----5--5-------|
|---------------------------|


|-----------------------------|
|--------------------7----5---|
|--7-----7--7----7------------|
|-----------------------------|


|---------------------------| 
|---------------------------|
|---7----7--7----5--5-------|
|---------------------------|


|----------------------------------------|
|--------------5------7------9-----------|
|--7-------7-------7-----7----------5----|
|----------------------------------------|

He's haunted by the memory of a lost paradise 
|----------------------------|
|----------------------------|
|--7------7---7-------5--7h--|
|----------------------------|


|----------------------------|
|---5---4--------------------|
|----------7---5---7-------5-|
|----------------------7-----|

In his youth or a dream, he can't be precise 
|---------------------------| 
|---------------------------|
|---7----7--7----5--5-------|
|---------------------------|


|-----------------------------|
|--------------------7----5---|
|--7-----7--7----7------------|
|-----------------------------|

He's chained forever to a world that's departed 
|----------------------------|
|----------------------------|
|--7------7---7-------5--7h--|
|----------------------------|


|----------------------------|
|---5---4--------------------|
|----------7---5---7-------5-|
|----------------------7-----|

It's not enough, it's not enough 
|---------------------------| 
|---------------------------|
|---7----7--7----5--5-------|
|---------------------------|


|----------------------------|
|---5---4--------------------|
|----------7---5---7-------5-|
|----------------------7-----|


|----------------------------|
|----------------------------|
|--7------7---7-------5--7h--|
|----------------------------|


|----------------------------|
|---5---4--------------------|
|----------7---5---7-------5-|
|----------------------7-----|


|---------------------------| 
|---------------------------|
|---7----7--7----5--5-------|
|---------------------------|


|-----------------------------|
|--------------------7----5---|
|--7-----7--7----7------------|
|-----------------------------|


|----------------------------|
|----------------------------|
|--7------7---7-------5--7h--|
|----------------------------|


|----------------------------|
|---5---4--------------------|
|----------7---5---7-------5-|
|----------------------7-----|


|---------------------------| 
|---------------------------|
|---7----7--7----5--5-------|
|---------------------------|


|-----------------------------|
|--------------------7----5---|
|--7-----7--7----7------------|
|-----------------------------|


|---------------------------| 
|---------------------------|
|---7----7--7----5--5-------|
|---------------------------|


|---------------------------------------|
|----------7--5-------5--4----------5---|
|--5--------------7---------7---5-------|
|---------------------------------------|

His blood has frozen & curdled with fright 
|----------------------------|
|----------------------------|
|--7------7---7-------5--7h--|
|----------------------------|


|----------------------------|
|---5---4--------------------|
|----------7---5---7-------5-|
|----------------------7-----|

His knees have trembled & given way in the night 
|---------------------------| 
|---------------------------|
|---7----7--7----5--5-------|
|---------------------------|


|-----------------------------|
|--------------------7----5---|
|--7-----7--7----7------------|
|-----------------------------|

His hand has weakened at the moment of truth 
|----------------------------|
|----------------------------|
|--7------7---7-------5--7h--|
|----------------------------|


|----------------------------|
|---5---4--------------------|
|----------7---5---7-------5-|
|----------------------7-----|

His step has faltered 
|---------------------------| 
|---------------------------|
|---7----7--7----5--5-------|
|---------------------------|


|-----------------------------|
|--------------------7----5---|
|--7-----7--7----7------------|
|-----------------------------|


|---------------------------| 
|---------------------------|
|---7----7--7----5--5-------|
|---------------------------|


|--------------|
|--------------|
|--7--7--7-----|
|--------------|

One world,
|--------------|
|--------------|
|--2--2--2-----|
|--------------|


|------------------------|
|------------------------|
|--14----14--12----12----|
|------------------------|

one soul
|--------------|
|--------------|
|---9---9------|
|----------9---|


|-------------------------|
|-------------------------|
|----------------------0--|
|---2-----2---2----2------|

Time pass,
|--------------|
|--------------|
|--2--2--2-----|
|--------------|


|------------------------|
|------------------------|
|--14----14--12----12----|
|------------------------|

the river rolls
|--------------|
|--------------|
|---9---9------|
|----------9---|


|-------------------------|
|-------------------------|
|----------------------0--|
|---2-----2---2----2------|


|---------------------------------------------------|   ____
|---------------------------------------------------|  /    \  \     /
|---------------------------------------------------|       /   \   /
|---3--3--3--3--3--3--3--3--3--3--3--3--3--3--3--3--|      /     \ /
                                                    |     /       
                                                    |    /       / \
|---------------------------------------------------|   /       /   \
|---------------------------------------------------|  /_____  /     \
|---------------------------------------------------|      
|---5--5--5--5--5--5--5--5--5--5--5--5--5--5--5--5--|


|-----------4-------|
|-------------------|
|----2--------------|
|-------------------|


|-------------------|
|-------------------|
|----2------14------|
|-------------------|


|---23--23--23--21----------------------|
|---------------------23--23--23--21----|
|---------------------------------------|
|---------------------------------------|

let ring -------|
|------------------------|
|------------------------|
|---2--------------------|
|------------------------|


|----------------|
|----------------|
|----------------|
|---7------------|


|------------------------------|
|------------------------------|
|------------------------------|
|------------------------------|

let ring -------|
|------------------------|
|------------------------|
|---2--------------------|
|------------------------|


|--------------------------------|
|----------------7--9--9--9------|
|--2-----------------------------|
|--------------------------------|


|------------------------------|
|------------------------------|
|------------------------------|
|------------------------------|

let ring -------|
|------------------------|
|------------------------|
|---2--------------------|
|------------------------|


|--------------|
|--------------|
|--2-------2---|
|--------------|


|---------------|
|---------------|
|--2--2--2--2---|
|---------------|

And he talks to the river of lost love
|----------------------------|
|----------------------------|
|--7------7---7-------5--7h--|
|----------------------------|

and dedication 
|----------------------------|
|---5---4--------------------|
|----------7---5---7-------5-|
|----------------------7-----|


And silent replies that swirl invitation 
|---------------------------| 
|---------------------------|
|---7----7--7----5--5-------|
|---------------------------|


|-----------------------------|
|--------------------7----5---|
|--7-----7--7----7------------|
|-----------------------------|

Flow dark and troubled to an oily sea 
|----------------------------|
|----------------------------|
|--7------7---7-------5--7h--|
|----------------------------|


|----------------------------|
|---5---4--------------------|
|----------7---5---7-------5-|
|----------------------7-----|

A grim intimation of what is to be 
|---------------------------| 
|---------------------------|
|---7----7--7----5--5-------|
|---------------------------|


|-----------------------------|
|--------------------7----5---|
|--7-----7--7----7------------|
|-----------------------------|


|---------------------------| 
|---------------------------|
|---7----7--7----5--5-------|
|---------------------------|


|----------------------------------------|
|--------------5------7------9-----------|
|--7-------7-------7-----7----------5----|
|----------------------------------------|

There's an unceasing wind that blows 
|----------------------------|
|----------------------------|
|--7------7---7-------5--7h--|
|----------------------------|

through this night 
|----------------------------|
|---5---4--------------------|
|----------7---5---7-------5-|
|----------------------7-----|

And there's dust in my eyes, that blinds my sight 
|---------------------------| 
|---------------------------|
|---7----7--7----5--5-------|
|---------------------------|


|-----------------------------|
|--------------------7----5---|
|--7-----7--7----7------------|
|-----------------------------|

And silence that speaks so 
|----------------------------|
|----------------------------|
|--7------7---7-------5--7h--|
|----------------------------|

much louder that words, 
|----------------------------|
|---5---4--------------------|
|----------7---5---7-------5-|
|----------------------7-----|

Of promises broken 
|---------------------------| 
|---------------------------|
|---7----7--7----5--5-------|
|---------------------------|


|---------------------------| 
|---------------------------|
|---7----7--7-------7-------|
|---------------------------|


|----------------------------|
|----------------------------|
|--7------7---7-------5--7h--|
|----------------------------|


|----------------------------|
|---5---4--------------------|
|----------7---5---7-------5-|
|----------------------7-----|


|---------------------------| 
|---------------------------|
|---7----7--7----5--5-------|
|---------------------------|


|-----------------------------|
|--------------------7----5---|
|--7-----7--7----7------------|
|-----------------------------|


|----------------------------|
|----------------------------|
|--7------7---7-------5--7h--|
|----------------------------|


|----------------------------|
|---5---4--------------------|
|----------7---5---7-------5-|
|----------------------7-----|


|---------------------------| 
|---------------------------|
|---7----7--7----5--5-------|
|---------------------------|


|-----------------------------|
|--------------------7----5---|
|--7-----7--7----7------------|
|-----------------------------|


|----------------------------|----------------------------------------------
|----------------------------|                                     
|--7------7---7-------5--7h--|
|----------------------------|


|----------------------------|
|---5---4--------------------|
|----------7---5---7-------5-|
|----------------------7-----|


|----------------------------|
|----------------------------|
|--7------7---7-------5--7h--|
|----------------------------|


|----------------------------|
|--5--4--------------7-------|
|--------7-------------------|
|----------------------------|                    \        /
                                     ----------    \      /
                                              /     \    /
|----------------------------|               /       \  / 
|----------------------------|              /             
|--7------7---7-------5--7h--|         ----/----     /  \
|----------------------------|            /         /    \   
                                         /         /      \
                                        /         /        \
|----------------------------|
|---5---4--------------------|
|----------7---5---7-------5-|
|----------------------7-----|


|---------------------------| 
|---------------------------|
|---7----7--7----5--5-------|
|---------------------------|


|-----------------------------|
|--------------------7----5---|
|--7-----7--7----7------------|
|-----------------------------|---------------------------------------------



|----------------------------|
|----------------------------|
|--7------7---7-------5--7h--|
|----------------------------|


|-------------------|
|--5---4------------|
|---------7---5-----|
|-------------------|


|---------------|
|---------------|
|--7------------|
|---------------|


          
----------------------------------------------------------------------------


| /  slide up
| \  slide down
| h  hammer-on
| p  pull-off
| ~  vibrato
| +  harmonic
| x  Mute note
============================================================================





Comments


Popular Pink Floyd tabs & chords
Comfortably Numb 2 Bass Tabs
Empty Spaces 1 Bass Tabs
Goodbye Cruel World 4 Bass Tabs
Julia Dream Bass Tabs
Pigs On The Wing Part 1 Chords
Breathe 1 Tabs
Hey You Intro Tabs
Pow R Toc H Tabs
The Final Cut Tabs
Astronomy Domine Ukulele


Song lyrics



↑ Back to top | Tablatures and chords are parodies/interpretations of the original songs. You may use it for private study, scholarship, research or language learning purposes only
© 2014 AZChords.com Contact us | Privacy policy | DMCA | Add/correct tabs | Request tabs | Top 50 tabs