>
 >
Sorrow

Sorrow Guitar Tabs

Pink Floyd - Sorrow chords, tabs, tablatures, lyrics

Guitar lessons | Add/correct | Request | Top 50 tabs Artists:  A B C D E F G H I J K L M N O P Q R S T U V W X Y Z 0-9

Sorrow Guitar Tabs – Pink Floyd

CD, Sheet music, Poster

Do you like Sorrow? Share with your friends now
ChordsTabsTabs v2Ukulele
			    by Pink Floyd

				from
		      A Momentary Lapse of Reason


intro
-----

----------------------------------------------------
----------------------------------------------------
----------------------------------------------------
----------------------------------------------------
--------------------5/7-7vvvvvv--7/9\7\5vvvvvvvv----
--/0vvvvvvvvvvv-------------------------------------


----------------------------------------
----------------------------------------
----------------------------------------
----------------------------------------
-----2/5-5vvvvvvv-----------------------
---3-----------------/0\/vvvvvvvvvvv----



---5/7-7vvvv---7/9\7\5vvvv------2/5-(3)>5\-0vvvvvv------------------
-----------------------------3-----------------------/0vvvvvvvvvv\--


--------------------------------------------------------------
--------------------------------------------------------------
--------------------------------------------------------------
--------------------------------------------------------------
--5/7-7vvvvvvvv--7/9\7\5vvvvv-------2/5-5vvvvv--5/7-7vvvvvvv--
--------------------------------3-----------------------------


----------------------------------------------------------"9"\\\/\\-----
--7/9\7\5vvvvvvv--------2/5(3)>5--5vvvvvvvvvv---------------------------
-------------------3----------------------------/0vvvvvvvvvvvvvvvvvvvvv-


-------------------------
-------------------------
-------------------------
-------------------------
-------------------------
--///////0vvvvvvvvv------


chords:
-------


	Em		D/E		C/E		Em2

     ---15--- 	      ---14---	     ----12---	    -----12----
     ---17---	      ---15---	     ----13---	    -----12----
     ---16---	      ---14---       ----12---	    -----12----
     --------         --------       ---------	    -----------
     --------         --------       ---------	    -----------
     --------         --------       ---------	    -----------


     Em
--------------------------------------
--------------------------------------
---------------------------7----------
---0\----------------------7----------
---0\----------------------5----------
--------------------------------------
		|                  |
guitar 2;       --------------------
		--------------------	"3">("-4")-	       a harmonic at the third fret,
		--------------------	       but depress the bar first, so
		--------------------	       it sounds like your going up to
		--------------------	       it, than dive w/bar to fret -4.


D/E                                            C/E            EM2
---------"12">("10)------------------------------------------
---------------/3>(1)----"12"\"7"/"12"-----------------------  (0)----"12"\"7"/"12"-----------------------	  guitars. You
---------------/0>(-2)---------------------------------------	  can probably
-------------------------------------------------------------	  figure out 
-------------------------------------------3/6--0vvvvvvvv\---	  the arangment
    one bar between chord changes.
    v
D/E   Em2
-----------------------------------
--------15--15>(17)======>15-------	(17)vvvvvvvv--
----------------------------------------
----------------------------------------
----------------------------------------
----------------------------------------


solo 1;

--------------------------------------------
--------------------------------------------
---14>(16)>14>(16)>14>12---12vvvvvvvvvv\----
--------------------------------------------
--------------------------------------------
--------------------------------------------


-----------------------------------------------12-------------------------
---------------------------------15>(17)vvvvv------15>(17)>15>12--15vvvv--
--'2'>('4')>'2'>('4')>'2'---\---------------------------------------------


---------------------12-14-15>(17)vvvvvvv----15>(17)----
----12--15>(17)vvvv-------------------------------------
--------------------------------------------------------
--------------------------------------------------------
--------------------------------------------------------
--------------------------------------------------------


--15--15>14>12--15vvvvv---------------------------------------
---------------------------12---15>(17)======>15--15>12--15---
--------------------------------------------------------------
--------------------------------------------------------------
--------------------------------------------------------------
--------------------------------------------------------------


--12----12------------------------------------------------------------
---------------12vvvvvvv\--------------------------------0--0-----7---(4)>2(4)>2--------------0--0--9--7---	two
----------------------------------------------2vvvvv-----------9--7---	times
							     unspecified pitch


verse;

Em
His blood os frozen, and curdled with fright,

     D/E
His knees have trembled, and given way in the night. (17)>15----------------------0-----7\---
-----------------------------------------7\---
-----------------------------------------7\---
-----------------------------------------5\---
-------------------------/0-------------------


bridge;


One word, one soul.

Time pass, river roll.



--------------------------------------
--------------------------------------
-----------------------------------4--
--5------5--7------5--------5------4--
--5------5--7------5--------5------2--
--3------3--5------3--------7---------


-----------------------------2-----
-------5---------------------3-----	("5")>"7"-------\/-\/-\/------		4\-(-3)>4vvvvvvv>2>0---------------------------------
---7/9\7-\--------------------------------------------------------------
---5/7\5-\--------------------------------------------------------------


---0-----------0---0---0---0-----------------------------------
---0----2>3>2--0---0---0---0-----------------------------------
------------------------------'2'>'3'>'2'vvvvv--2>0--2vvvvvv---


----------------------------------------------------------9--7vvvvvv--
--/2--5--/0---5--2>0------5-------------------------------9--7vvvvvv--
----------------------2>0-----2>0--------------------/7---------------
------------------------------------3---0vvvvvvvv---------------------


------------------------------0------------------------------------------
--/0-------------------3/5-------5vvvvv----------------------------------
-------2>(4)>2vvvv-----------------------2-\/-\/vvvvvv---2--2/4>0-2vvv---


-----------------------------------------------------0--
------------------------------------------------3/5-----
--0>2--2vvvv----2>3>2>0--2--0>2vvvv\/vvvvv>0------------
--------------------------------------------------------
--------------------------------------------------------
--------------------------------------------------------


--0---5>0--0--3>0--0--5>0--0--3>0--0--5>0--0--3---2--2---\/-\/-\/-\/-vvvvv--
----------------------------------------------5---3--3---\/-\/-\/-\/-vvvvv--


------------0-------------------------------------------------------
---(3)>5------3>0---------------------------------------------------
-------------------2>(3)>2>0-----2----------------------------------
------------------------------2------2----0>2>0---------------------
--------------------------------------------------\5---0vvvvvvvvvv--


--------------12--14--15--17>(19)vvvvv--17>(19)>17>15---17>(19)>17>15--17vvv-
---15>(17)\------------------------------------------------------------------


--17>(19)vvvvvvv------15--17vvvvvv\---0--0-----0----------------------
--------------------------------------0--3/5---5------5\3>0-----------
--------------------------------------------------------------2>(4)---


--2>(4)>2>0-----2>0-------------------------------------------------
-------------2--------2---0---2-------------------------------------
-------------------------------------0------------------------------
----------------------------------3-----3---0---0----/////0vvvvvv---


-----------------------------/5---0---------------------------------
-----------------------------/5-------5vvvvvv---8---8vvvv---7--7>8--
--2>(4)---'0'vvvvv----------------------------------7vvvv-----------
--------------------2vvvvvv-----------------------------------------


--8>(10>8>7-----8>7--------------------------------------------
-------------9-------9>7---9>7----------2>0--------------------
---------------------------------9\7>5------2>0----------------
--------------------------------------------------5>(7)vvvv\---


----------------------12--14--15--15>(17)vvvvv--15--14>(12)---15vvvvvv---
--15>(17)======>(15)-----------------------------------------------------


---14>12-----------------12--------------------------------------
----------15vvvvvvvvv---------------15---------------------------
----------------------------14>(16)-----14vvvvvv---4---2vvvvvv---


---------------------------------------------------
----------------------------------7-------/8---0---
----------------------------------7----------------
--2---2---2>0----2vvvvvvvv>0------7--7--0----------
---------------------------------------------------
---------------------------------------------------


--------------------------------------------------------
--15>(17)vvvvvvv>15>12--14>(15)>12----------------------
--------------------------------------14>(16)>14---12\--
--------------------------------------------------------
--------------------------------------------------------
--------------------------------------------------------


------14vvvvvvvv--14>(15)>14>12--14vvvvv\/vvvvvv--12--14--15--15>17vvvvv--
---12---------------------------------------------------------------------


--15>(17)--15--14>12--14>(15)========>14>12---12---------------
--------------------------------------------15--15>(17)vvvvv\--


---------------------------------------------
------15VVVVvvvvvvvv-15>(17)>VVVVVVVVVV------
--14-----------------------------------------
---------------------------------------------
---------------------------------------------
---------------------------------------------


-------0------------------------------------------------------------------
---------------12-\/--\/--14>(16)vvvvv--/12--14--14>(16)>14--12-----------
-----------14----------------------------------------------------14vvv\---
---12---------------------------------------------------------------------


------------------------0---0------------0---0---0----------------------
------------------------0---0--3/5--3>0--0---0---5----------------------
--0--'2'vvvv--0>2vvvvv------------------------------2>0-----------------
--------------------------------------------------------2>0----2vvvvv---


------------------------------------------------------------
------------------------------------------------------------
--0---------------------------------------------------------
-----2>0--------------------0>2--0>2--5>2--5/7--7vvvvvvv----
---------2>0----5-------------------------------------------
-------------3-----3---0------------------------------------


----------------------------------------------------
----------------------------------------------------
--------0-------2>(3)>2>0---2>0---------------------
--0--2-----0>2--------------------2/4\2--0vvvvvvv---
----------------------------------------------------
----------------------------------------------------


------12-------12--------12--------11-------12vvvvvvvv--
--15>(17)--15>(17)---15>(17)---14>(16)--15>(17)vvvvvvv--	(17)vvvv---15>(17)vvv---17>(19)vv--19>(20)vvvvv--19>(20)vvvv---19>(20)--


------17vvvv-------17vvvvvv------17------17------17------17------17---------19-
--20>(22)vvv---20>(22)vvvvv--20>(22)-20>(22)-20>(22)-20>(22)-20>(22)-20>(22)---

--19vvvvv--19vvvvvvvvvvv\----------------------------
-----------------------------------------------------
------------------------------2>(3)>2>0--------------
------------------------------------------2vvvvvvv---
-----------------------------------------------------
-----------------------------------------------------


------0--------------------------------------------------------------------
----------12-VVVVVVV\------------------------------------------------------
-/9-------12-VVVVVVV\--7---------------------------------------------------
----------12-VVVVVVV\--7--7>(8)>7>5--7vvvv---------------------------------
--------------------------------------------7--7----------------5----------
--------------------------------------------------5>(6)>5--3--0----3---0---


--------------------------------------------------------------7--
--------------------------------------------------7--9--7--9-----
--2--2--4--4/5--4--'5'--5/7--5--4--7/9vvvv---7--9----------------


----------------------------------------------
--8>7>5----5>3>0---3>0------------------------
---------7-------2----------------------------
------------------------2>0--5--2>0-----------
--------------------------------------2-------
-----------------------------------------3/5--


fills;
------

A

------------------
--7---------------
----7-----7vvvvv--
-------9----------
------------------
------------------


B

------------
------------
------------
------------
------------
--10\3--0\--

C

--------------
--------------
--------------
------2-------
--------------
-2/3------3---


D

-------------
-------------
-------------
------0------
-1/2---------
---------0---



Legend;


legato				-----7>9>7----
bend and release		------7>(9)>7-
harmonic (open)			-----"12"-----
harmonic (pinched)		-----'12'-----
dive and return w/ bar		---12-\/------
vibrato				----12vvvvvv--







for Pink Floyd Music Publishers





Comments


Popular Pink Floyd tabs & chords
Bravery Of Being Out Of Range Chords
Childhood's End Chords
The Heros Return Chords
Have A Cigar Drum Tabs
Hey You Drum Tabs
Fat Old Sun 2 Tabs
One Slip Tabs
Shine On You Crazy Diamond Part 3 Tabs
Whots Uh The Deal Tabs
The Gold Its In The Ukulele


Song lyrics



↑ Back to top | Tablatures and chords are parodies/interpretations of the original songs. You may use it for private study, scholarship, research or language learning purposes only
© 2014 AZChords.com Contact us | Privacy policy | DMCA | Add/correct tabs | Request tabs | Top 50 tabs