» » »

Pink Floyd, Shine On You Crazy Diamond Parts I V Bass tabs (ver.1)

Artists:  A B C D E F G H I J K L M N O P Q R S T U V W X Y Z # 

Shine On You Crazy Diamond Parts I V Bass tabs (ver.1)

Pink Floyd Tabs
Rating:
0/5 (0 votes)
Hard to play? Try these video lessons and learn fast.
                "(1)
Great song by the greatest band ever!

Standard tuning


Bass comes in with low G note, light flange.
G|----------------------------------------------------
D|----------------------------------------------------
A|----------------------------------------------------
E|--3-------------------------------------------------

	2:29
G|----------------------------------------------------
D|----------------------------------------------------
A|----------------------------------------------------
E|--1------------2------------3-------------3--0---3--

	4:36
Riff 1
G|----------------------------------------------------
D|----------------------------------------------------
A|-------------------------------2h5------------------
E|---3------3-----0-3--3-----3--------3----3---0-3--3-

G|----------------------------------------------------
D|----------------------------------------------------
A|----------------------------------------------------
E|--1-1-1-1-1-1-1-1-1-1-1-1-1/3---3---0--3--3---------

Riff 1 goes on for a while with little fills...
Fill 1- 4:56
G|---------------------------------------------------
D|---------------------------------------------------
A|-----------0--3--5--6---6--6--6-6--6\5--5--5--5-5--
E|--3--5--6------------------------------------------

G|----------------------------------------------------
D|----------------------------------------------------
A|----------------------------------------------------
E|--1-1-1-1-1-1-1-1-1-1-1-1-1/3---3---0--3--3---------

	5:18
G|----------------------------------------------------
D|----------------------------------------------------
A|-----5--3-------------------------------------------
E|--3--------5--3--3----0--3-3------------------------

	5:40
Fill 2
G|----------------------------------------------------
D|----------------------------------------------------
A|------5--3------3--1--3-3---3--5--3--1--3-3---------
E|---3------------------------------------------------


G|----------------------------------------------------
D|--5\------------------------------------------------
A|--------3--1----------------------------------------
E|---------------1--3----3--0--3-3--------------------

Fill 2 comes in again

Riff 2
6:09
Timing is hard on first couple notes
G|----------------------------------------------------
D|----------------------3h5----5--4--3--2--1--0--1--0-
A|---------------3--5---------------------------------
E|--3--1--3--5----------------------------------------

Riff 1 is played again

6:54
Riff 3
G|----------------------------------------------------
D|----------------------------------------------------
A|-----1--0--3--3---1--3-3--3h5--3--3-3--3h5----------
E|--3-----------------------------------------3--3----

Riff 1 is played


7:15
Riff 4
G|----------------------------------------------------
D|----------------------------------------------------
A|-----------0--3--5--6---5---6---5----3-5--3-5-------
E|--3--5--6--------------------------------------3----


G|----------------------------------------------------
D|-----5----------------------------------------------
A|--5------3------3--5--------------------------------
E|-------------3--------------------------------------

Riff 1

Riff 3

Riff 1

Riff 4

8:48
"Remember When you were young..."
Riff 5
G|----------------------------------------------------
D|------------------3--5------------------------------
A|----------------5----------1---1--3--5--------------
E|--3--3--0--3-3----------2---------------------------


"Shine On you Crazy Diamond.."
Riff 6
G|----------------------------------------------------
D|----------------------------------------------------
A|--6--5--3--1----------------------------------------
E|--------------1----1---1/2--3-----------------------

Riff 5

Riff 6

"You Were caught in the crossfire.."
Verse Riff
G|----------------------------------------------------
D|--5--4--3--2--1--2--3-----3-------------------------
A|----------------------------------------------------
E|-----------------------1-----1--2---3--0--3--3------


G|----------------------------------------------------
D|--------5-----------------------6--5----------3-----
A|-----5------------1---1--3--5----------6--5---------
E|--3--------2---2------------------------------------


G|----------------------------------------------------
D|--------------------------------5-------------------
A|------------------------------5-------1--1-1-1-1----
E|---3b5---1---1--2--3---0--3-3------2----------------

Riff 6

Riff 7
G|----------------------------------------------------
D|---------------------5------------------------------
A|-------------------5------1---1--1--1-1-------------
E|--3--3--0--3-3--3-------2---------------------------

Riff 6

Verse Riff- "Well you Wore out your welcome.."


Riff 1 played during sax solo

12:07
G|----------------------------------------------------
D|----------------------------------------------------
A|----------3h5-----------3h5-----------3h5-----------
E|--3-3-3-3------3-3--3-3------3-3--3-3-----3-3--3-3--


G|----------------------------------------------------
D|----------------------------------------------------
A|--3h5--3-3--3-3--3h5--3-3--3-3--3h5--3-3--3-3--3h5--
E|----------------------------------------------------


G|----------------------------------------------------
D|----------------------------------------------------
A|-3-3--3h5p3--3h5p3--3h5p3-----------3h5-------------
E|---------------------------3-3--3-3-----3-3--3-3----


G|----------------------------------------------------
D|----------------------------------------------------
A|--3h5-----------3h5----------1h3--1-1--1-1-1h3------
E|-------3-3--3-3-----3-3--3-3------------------------


G|----------------------------------------------------
D|----------------------------------------------------
A|--3-3--3-3--3h5--5-5--5-5--5-5--5-5-----------------
E|-------------------------------------3--------------

Good Luck!
"            

comments powered by Disqus
↑ Back to top | Pink Floyd Bass for Shine On You Crazy Diamond Parts I V. Lyrics for acoustic guitar and electric guitar. Tablatures and chords are parodies/interpretations of the original songs. You may use it for private study, scholarship, research or language learning purposes only