>
 >
Shine On You Crazy Diamond Live

Shine On You Crazy Diamond Live Guitar Tabs

Pink Floyd - Shine On You Crazy Diamond Live chords, tabs, tablatures, lyrics

Guitar lessons | Add/correct | Request | Top 50 tabs Artists:  A B C D E F G H I J K L M N O P Q R S T U V W X Y Z 0-9

Shine On You Crazy Diamond Live Guitar Tabs – Pink Floyd

CD, Sheet music, Poster

Do you like Shine On You Crazy Diamond Live? Share with your friends now
Tabs
This song was very easy to tab because it was 
pretty close to the studio version. 
I think the keyboard solo`s is wrong, but I am only 13 years old so don`t be mad.
Please leave comments!

Here we go:

----------------------------------------------------------------------------

              Shine On You Crazy Diamond (Concert Version)
                                Pink Floyd
                            Pulse (DVD Version)
                          Tuning: standard (EADGBe)
 
----------------------------------Part I------------------------------------

no guitar

keyboard fade in

Keyboard solo 1: (Wright)
|-------------------------------------------------------------------------|
|------------------------------------------------3------------------------|
|--0-7---0-5---7-3-2-0-------2-3----2-3----5--3-5-------0-7---0-5---7-3-2-|
|-------------------------------------------------------------------------|
|-------------------------------------------------------------------------|
|-------------------------------------------------------------------------|

|--------------------------------|
|--------------------------------|
|-0---------5-0-----3-2-0---0----|
|--------------0---------0-------|
|---------------1---------1------|
|--------------------------------|
                                 
----------------------------------Part II-----------------------------------

Guitar Solo 1: (Gilmour)
|--------------------------------------------------------------|
|----18b(20)~-18-18b(20)~----------11b-13-13b(15)~-13-13b(15)~-|
|----------------------------12-12-----------------------------|
|--------------------------------------------------------------|
|--------------------------------------------------------------|
|--------------------------------------------------------------|

|--------------------------------------------------------------------------|
|-----13b(15)r11b-13-13b(15)~-13-13b(15)~-----10h11p10---10----------------|
|--12-------------------------------------------------12----10-10----10~\--|
|-----------------------------------------------------------------12-------|
|--------------------------------------------------------------------------|
|--------------------------------------------------------------------------|

|--------------------------------------------------------------13-15---|
|-------------------------------------------------------13b(15)--------|
|---12b(15)-12b(15)~~r-10-12-12b(15)--12b(15)-10-12-12-----------------|
|----------------------------------------------------------------------|
|----------------------------------------------------------------------|
|----------------------------------------------------------------------|

|---15-15-18-----18b(20)r18-18---------------------------------------|
|-------------15--------------------13b(15)r11--13--11b--------------|
|---------------------------------------------12--12---12-12-10-12---|
|--------------------------------------------------------------------|
|--------------------------------------------------------------------|
|--------------------------------------------------------------------| 

|-------------------------------------13b(15)(15)(15)r10--13b(15)(15)r10-|
|---13b(15)r11b-13-13b(15)~~13-13b(15)-----------------------------------|
|-12---------------------------------------------------------------------|
|------------------------------------------------------------------------|
|------------------------------------------------------------------------|
|------------------------------------------------------------------------|

|--------------------------------------------------------------13----------|
|-13b(15)\---13b(15)r11b-13-13-----11----13b(15)r11b-13-13b(15)~~~~13b(15)-|
|-------------------------------12-----------------------------------------|
|--------------------------------------------------------------------------|
|--------------------------------------------------------------------------|
|--------------------------------------------------------------------------|

|--------------18------18-20b(22)--18b(20)-18-17---------------|
|---18b(20)(20)------15--------------------------18-18b(20)----|
|--------------------------------------------------------------|
|--------------------------------------------------------------|
|--------------------------------------------------------------|
|--------------------------------------------------------------|

---------------------------------Part III-----------------------------------
           let ring
|----------------0-----------------0----------------0------|
|------------6-----------------6----------------6----------|
|--------------0-----------------0----------------0--------|
|----------8-----------------8----------------8------------|
|----------------------------------------------------------|
|----------------------------------------------------------|
                drums enter here
|---------------0---------------0--------------0-------|
|-----------6---------------6--------------6-----------|
|-------------0---------------0--------------0---------|
|---------8---------------8--------------8-------------|
|------------------------------------------------------|
|------------------------------------------------------|

|---------------------------------------0-----------------------------|
|-----------------------------------6---------------6-----------------|
|-------------------------------------0---------------0--8-----8\7-8--|
|---------------------------------8---------------8------8-----8\7-8--|
|--3-3-3-3-3-3-3-3-3-3/5---------------------------------------6\5-6--|
|--1-1-1-1-1-1-1-1-1-1/3----------------------------------------------|

|--------------------------------------------------0-------|
|----------------------------------------------6-----------|
|--8-7-------------------------------------------0---------|
|--8-7---------------------------------------8-------------|
|--6-5--------3-3-3-3-3-3-3-3-3-3/5------------------------|
|-------------1-1-1-1-1-1-1-1-1-1/3------------------------|

Guitar Solo 2: (Gilmour)
|-------------------------------3---------------------------|
|----13b(15)--11-13-----------3---6-------------------------|
|------------------12---------------5b(7)--5b(7)r3-5p3------|
|------------------------------------------------------5----|
|-----------------------------------------------------------|
|-----------------------------------------------------------|

|----18p15--18--17b(18)-17-\-----------------------------------------|
|---------15------------------17p15-18b(20)--18b(20)18b(20)r-15-15-\-|
|--------------------------------------------------------------------|
|--------------------------------------------------------------------|
|--------------------------------------------------------------------|
|--------------------------------------------------------------------|

|---18p15---18p15--18b(20)---18b(20)r-15-18-15--------------------------|
|--------15------15------------------------------11-13-13b(15)-11-13----|
|-------------------------------------------------------------------12--|
|-----------------------------------------------------------------------|
|-----------------------------------------------------------------------|
|-----------------------------------------------------------------------|

|----------------------------------------6--------------------------|
|------------------------------------------6-8----10b(11)r8----8-\--|
|---5/7-5--------------------3-------6/8--------------------10------|
|---------5-------------------3-5-----------------------------------|
|-----------3/5-3--------3/5----------------------------------------|
|-----------------1/3-----------------------------------------------|

|-------------------------------------------------------------------------|
|--11--13b(15)rb(15)-14b(16)---14p13-11-13---13b(15)----------------------|
|---------------------------------------------------11---12p11-9-11-11~~\-|
|-------------------------------------------------------------------------|
|-------------------------------------------------------------------------|
|-------------------------------------------------------------------------|

|--15------15------15---------15------15-----15--15--17b(18)r17---------|
|--18b(20)(20)~~~~(20)r-15----18b(20)(20)~~~(20)---------------18b(20)--|
|-----------------------------------------------------------------------|
|-----------------------------------------------------------------------|
|-----------------------------------------------------------------------|
|-----------------------------------------------------------------------|

|--------------------------------------------------------------------|
|--(20)r18-15-18-15----(15)r13-11------------------------------------|
|--------------------------------12-------3-5-7b(8)--7b(8)-3h5-5b(7)-|
|---------------------------------------/5---------------------------|
|--------------------------------------------------------------------|
|--------------------------------------------------------------------|

|-----------------------------------------|
|----------6------------------------------|
|--5b(7)(7)--7b(8)---(7)r5p3-5-5b(7)---r--|
|-----------------------------------------|
|-----------------------------------------|
|-----------------------------------------|

---------------------------------Part IV------------------------------------

Keyboard solo 2: (Wright)
|-----------------------------------------------------------------|
|--------------------------------------------3--------------------|
|--2/3---2-0---2-3-0-----------------2-3---3---3---2-3-0----------|
|-----------------------0---------------------------------0-------|
|-------------------------1---------------------------------1-----|
|---------------------------3---------------------------------3---|
|Guitar during keyboard solo: (Gilmour)                           |
|-----3-----3-----------------------------------------------------|
|-----3-----3------5\3-------------------------------5\3----------|
|-----------------------------------------------------------------|
|---------------3/5-------------------------------3/5-------------|
|-----------------------------------------------------------------|
|------------------------------/3-5-3-----------------------------|

|------------------------------------------------------------------|
|--------------------------------------6---------------------------|
|--------8---7-5-0----0-5-8---7-5-8------8-7-5-7--3-2-0----2-3-0---|
|------------------------------------------------------------------|
|------------------------------------------------------------------|
|------------------------------------------------------------------|
|                                                                  |
|-------------------------------------------------3----------------|
|-------------------------6\4---------------------3----------------|
|------------------------------------------------------------------|
|----------------------5/7-----------------------------------------|
|--------5-6------------------------------------8\-----------------|
|-----/5-----------------------------------------------------------|

|---3-----------------------------------------------------------|
|-----1------------------------------------------------------6--|
|-------2-0----2-3-0------8--------7-5-7-----------8----7-5-----|
|---------------------------------------------------------------|
|---------------------------------------------------------------|
|---------------------------------------------------------------|
|                         let ring                              |
|---------------------------------------------------------------|
|------5\3----------------------8------------7------------------|
|-----------------------------8---8-----------------------------|
|---3/5---------------------8-------8----7----------------------|
|-------------------------6------------5-----------6---------5--|
|------------------/3-5-6---------------------------------13\---|

|--------------------------------------------------------|
|-------11--10-8-10-8-------8-10-8-----------------------|
|--------------------8----8------------------------7-----|
|--------------------------------------------------------|
|--------------------------------------------------------|
|--------------------------------------------------------|
|         let ring                                       |
|--------------------------------------------------------|
|--------------3-----------4-------------3---------6-----|
|----------------3-------5---5-------------3-------5-----|
|------------5-----5---5-------5------5------5-----4-----|
|--------------------3--------------5--------------5-----|
|---6-5-3-------------------------3----------------------|

-----------------------------------Part V-----------------------------------

Gm
Remember when you were young,
|----------------------------------------------------|
|----------------------------------------------------|
|----------------------------------3--5b(7)r5--------|
|-------------------------------/5-------------4~~~--|
|----------------------------------------------------|
|----------------------------------------------------|

F#                  Bb
you shone like the sun
|------------------------------------|
|----------------------------3--3-3--|
|-------------------3------3-3--3-3--|
|-------------------3------3-3--3-3--|
|-------------------1------1-1--1-1--|
|------------------------------------|

  D#    D      C   Bb  F
  Shine on you cra__zy diamond
|---------------------------------------------------------|
|----------------------1----------------------------------|
|-8-----7------5---3---2----------------------------------|
|-8-----7------5---3---3----------------------------------|
|-6-----5------3---1---3------------3b(4)-3---------------|
|-------------------------------------------3b(4)-1~~-1-2-|

Gm
Now there`s a look in your eyes,
|----------------------------------3----------------|
|---------------------------------3--6--------------|
|--------------------------------------5b(7)r(6)~~--|
|---------------------------------------------------|
|---------------------------------------------------|
|---------------------------------------------------|

F#
like black holes in the sky
|----------------------------------------|
|--------------------------------3--3-3--|
|------------------------3-----3-3--3-3--|
|------------------------3-----3-3--3-3--|
|------------------------1-----1-1--1-1--|
|----------------------------------------|

 D#    D      C   Bb  F    
 Shine on you cra__zy diamond
|------------------------------13-13-13--10--8\-1---|
|---------------------1--------13-13-13--10--8\-1---|
|-8----6------5---3---2-----------------------------|
|-8----6------5---3---3-----------------------------|
|-6----5------3---1---3-----------------------------|
|---------------------------------------------------|

         Gm                          F#      
You were caught in the cross-fire of childhood and stardom
|---------------------------------------------------------------|
|---------------------------------------------------------------|
|--------------3---5---5b(7)-5~~~---------3----5----5b(7)-5~~---|
|--------/5---------------------------4-------------------------|
|---------------------------------------------------------------|
|---------------------------------------------------------------|

    F                  E
   blown on the steel breeze
|------------------------------|
|------------------------------|
|--------3---5--5b(7)----------|
|----3-----------------2~------|
|------------------------------|
|------------------------------|

        D#                     A7                 Bb                      
        Come on you target for far away laughter, come on you stranger
|------------------------------0------------------1--------------------|
|------------------------------2------------------3--------------------|
|------------------------------0------------------3--------------------|
|------------------------------2------------------3--------------------|
|--3-5-6~~~~-------------------0------------------1--------------------|
|----------------------------------------------------------------------|

    Dm          D
you legend, you martyr, and...
|---5------------------------|
|---6-----------7------------|
|---7-----------7------------|
|---7-----------7------------|
|---5-----------5------------|
|----------------------------|

Guitar solo 3: (Gilmour)
    Gm                      F#           Bb          D#    D   Cm    Bb
...shine!
|------------------------------------------------------------------------|
|----------------------------------------3~~--3-4-6--8b(9)-8~~-----------|
|---5b(7)---5b(7)r3-5b(7)---5b(6)-3-5-b(6)---------------------7b(8)-7~~-|
|------------------------------------------------------------------------|
|------------------------------------------------------------------------|
|------------------------------------------------------------------------|
   F    
|------------------------------------|
|--4b(6)-4p3-------------------------|
|------------5~~---------------------|
|------------------------------------|
|------------------------------------|
|-------------------3b(4)r-1~~--1-2--|

    Gm
You reached for the secret too soon
|--------------------------------------------------------------|
|--------------------------------------------------------------|
|---------------------------------------3--5b(7)5b(7)-(6)~~~---|
|-------------------------------------5------------------------|
|--------------------------------------------------------------|
|--------------------------------------------------------------|

F#                  Bb
you cried for the moon
|----------------------------------------|
|-------------------3-----3-3--3-3--3-3--|
|-------------------3-----3-3--3-3--3-3--|
|-------------------3-----3-3--3-3--3-3--|
|-------------------1-----1-1--1-1--1-1--|
|----------------------------------------|

   D#    D      C   Bb  F
   Shine on you cra__zy diamond
|---------------------------------------------------------|
|-----------------------1---------------------------------|
|--8-----7------5---3---2---------------------------------|
|--8-----7------5---3---3---------------------------------|
|--6-----5------3---1---3-----------3b(4)-3---------------|
|-------------------------------------------3b(4)-1~~-1-2-|

Gm
Threatened by shadows at night
|----------------------------------------------------------|
|---------------------------7b(8)rb(8)r-6------------------|
|-----------------------------------------5b(7)--3h5p3~~~--|
|----------------------------------------------------------|
|----------------------------------------------------------|
|----------------------------------------------------------|

F#                  Bb
and exposed to the light
|-----------------------------------------|
|-------------------3-----------3-3--3-3--|
|-------------------3-----------3-3--3-3--|
|-------------------3-----------3-3--3-3--|
|-------------------1--------1--1-1--1-1--|
|-----------------------------------------|

  D#    D      C   Bb  F    
  Shine on you cra__zy diamond
|-------------------------------/13-13-13--10--8\-1--|
|----------------------1--------/13-13-13--10--8\-1--|
|--8----7------5---3---2-----------------------------|
|--8----7------5---3---3-----------------------------|
|--6----5------3---1---3-----------------------------|
|----------------------------------------------------|

        Gm                          F#
Well you wore out your welcome with random precision
|-------------------------------------------------------------|
|-------------------------------------------------------------|
|------------3----5----5b(7)-5~~~~------3---5---5b(7)-5~~~~---|
|-------/5--------------------------4-------------------------|
|-------------------------------------------------------------|
|-------------------------------------------------------------|

   F                  E
   Rode on the steel breeze
|---------------------------|
|---------------------------|
|-------3---5---5b(7)-------|
|--3------------------2~----|
|---------------------------|
|---------------------------|

        D#                     A7               Bb
        Come on you raver, you seer of visions, come on you painter,
|------------------------------0----------------1--------------------|
|------------------------------2----------------3--------------------|
|------------------------------0----------------3--------------------|
|------------------------------2----------------3--------------------|
|--3-5-6~~~--------------------0----------------1--------------------|
|--------------------------------------------------------------------|

      Dm         D
  you piper, you prisoner, and... 
|-----5------------------------|
|-----6----------7-------------|
|-----7----------7-------------|
|-----7----------7-------------|
|-----5----------5-------------|
|------------------------------|

    Gm
...shine!
|---3-----------------------------0-----------------------------|
|---3-------------------------6-----------------------------6---|
|---3---------------------------0-----------------------------0-|
|---5-----------------------8-----------------------------8-----|
|---5-----------------------------------------------------------|
|---3-----------------------------------------------------------|

riff A                        x10
|-0------8------10------8----|
|---6------6------6-------6--|
|----------------------------|
|-----8------8------8------8-|
|----------------------------|
|----------------------------|

riff B                     x2      riff C                     x2
|-6-----6-----5-----6-----|        |-5-----5-----4-----5-----|
|---8-----8-----8-----8---|        |---7-----7-----7-----7---|
|-------------------------|        |-------------------------|
|-----8-----8-----8-----8-|        |-----7-----7-----7-----7-|
|-------------------------|        |-------------------------|
|-------------------------|        |-------------------------|

repeat:

riff A x16

riff B x2 

riff C x2

Guitar solo 4: (Gilmour)
|---------------------------------------------------------------------|
|---------------------------------------------------------3~~--3-4-6--|
|---5b(7)-5b(7)---5b(7)r-3-5b(7)-5b(7)---5b(6)-r-3-5-5b(6)------------|
|---------------------------------------------------------------------|
|---------------------------------------------------------------------|
|---------------------------------------------------------------------|

  slow down
|---------------------------------------------------------|
|--8b(9)-8~~----------------------------------------------|
|------------7b(8)-7~~~-8b(10)-8p7-5~~~-------------------|
|---------------------------------------------------------|
|---------------------------------------------------------|
|------------------------------------------3b(4)r-1~--1-2-|

Gm
Nobody knows where you are
|---------------------------------------------------------|
|---------------------------------------------------------|
|------------------------------3--5-5b(7)-5b(7)---5b(6)---|
|----------------------------5----------------------------|
|---------------------------------------------------------|
|---------------------------------------------------------|

F#              Bb
how near or how far
|--------------------------------|
|------------------------3--3-3--|
|---------------3------3-3--3-3--|
|---------------3------3-3--3-3--|
|---------------1------1-1--1-1--|
|--------------------------------|

   D#   D      C   Bb  F
  Shine on you cra__zy diamond
|------------------------------------------------------|
|----------------------1-------------------------------|
|--8----7------5---3---2-------------------------------|
|--8----7------5---3---3-------------------------------|
|--6----5------3---1---3---------3b(4)-3---------------|
|------------------------------1---------3b(4)-1~--1-2-|

Gm
Pile on many more layers
|---------------------------3------------------|
|--------------------------3--6----------------|
|--------------------------------5b(7)-r-b(6)--|
|----------------------------------------------|
|----------------------------------------------|
|----------------------------------------------|

F#
and I`ll be joining you there
|--------------------------------------------|
|-------------------------------------3------|
|-----------------------3-------3-3-3-3-3----|
|-----------------------3-------3-3-3-3-3----|
|-----------------------1-------1-1-1-1-1----|
|--------------------------------------------|

   D#   D      C   Bb  F
  Shine on you cra__zy diamond
|-------------------------------13-13-13--10--8\-1---|
|----------------------1--------13-13-13--10--8\-1---|
|--8----7------5---3---2-----------------------------|
|--8----7------5---3---3-----------------------------|
|--6----5------3---1---3-----------------------------|
|----------------------------------------------------|

          Gm                     F#
And we`ll bask in the shadow of yesterday`s triumph,
|--------------------------------------------------------|
|--------------------------------------------------------|
|--------------3--5---5b(7)-5~~-----3--5---5b(7)--5~~~---|
|---------/5---------------------4-----------------------|
|--------------------------------------------------------|
|--------------------------------------------------------|

     F                 E
and sail on the steel breeze.
|-----------------------------|
|-----------------------------|
|--------3--5----5b(7)--------|
|----3-----------------2------|
|-----------------------------|
|-----------------------------|

       D#                         A7                Bb
       Come on you boy-child, you winner and loser, come on you miner
|---------------------------------0-----------------1----------------|
|---------------------------------2-----------------3----------------|
|---------------------------------0-----------------3----------------|
|---------------------------------2-----------------3----------------|
|--3-5-6~~~~----------------------0-----------------1----------------|
|--------------------------------------------------------------------|

     Dm        D
 for truth and delusion, and...
|----5------------------------|
|----6---------7--------------|
|----7---------7--------------|
|----7---------7--------------|
|----5---------5--------------|
|-----------------------------|

   Gm
...shine!                           repeat and fade
|---0------8------10------8--------|
|-----6------6-------6------6------|
|----------------------------------|
|-------8------8-------8------8----|
|----------------------------------|
|----------------------------------|


That`s it!

More tabs coming soon!

Go Norway!





Comments


Popular Pink Floyd tabs & chords
Arnold Layne 2 Bass Tabs
Have A Cigar Bass Tabs
Set The Controls For The Heart Of The Su Bass Tabs
What Do You Want From Me 1 Bass Tabs
Astronomy Domine Tabs
Buringb Tabs
Hey You 2 Tabs
Is There Anybody Out Of There Tabs
One Of The Few 1 Tabs
Bike Ukulele


Song lyrics



↑ Back to top | Tablatures and chords are parodies/interpretations of the original songs. You may use it for private study, scholarship, research or language learning purposes only
© 2014 AZChords.com Contact us | Privacy policy | DMCA | Add/correct tabs | Request tabs | Top 50 tabs