» » »

Pink Floyd, Shine On Pt4 Tabs (ver.5)

Artists:  A B C D E F G H I J K L M N O P Q R S T U V W X Y Z # 

Shine On Pt4 Tabs (ver.5)

Pink Floyd Tabs
 Rating:
4/5 (4 votes)
Shine On Pt4 lessons Tabs too difficult? Try these video lessons and learn fast
                Shine On You Crazy Diamond Part 1

----18>(20)!--18--18>(20)!-----------------------------------------
-----------------------------------15--17--17>(19)--17--17>(19)!---
-------------------------------17----------------------------------


---(19)>17p15--17---17>(19)!---17-17>(19)>(18)--14h15h14----14---------------
----------------------------------------------------------17---15-15----15!--


-17>(20)--17>(20)!=====(20)=(20)-15-17-17>(20)---17>(20)>17--15--17-17!-------


-------------------------15--18--18>(20)--18!\--------------------------------
--18--18(20)!---18>(20)-------------------------------------------------------
-------------------------------------------------(19)>17p15!------------------


---------------------------------------------------------(19)>17--15--17--
---17!--17>(19)--17>(20)!====(20)==(17)---15--17!-------------------------


--------------------------------15---------------------------------------------
-------------------18---18>(20)----18>(20)!\--18>(20)>18-15--------------------
-17>(19)---17>(19)------------------------------------------17>(19)!-17>(19)>17


--------------------------------------------------------------18-----------
15-17--17!\----------15----(19)>17-15-17-17>(19)!---17>(19)-------17>(19)!-
--------------15>17--------------------------------------------------------


---------15---18!-----18--20>(22)!---18>(20)>18--17--------------
-18>(20)----------15----------------------------------18----20---


!   vibrato

 bend or slide(if it's a bend, the note to bend up to will be in parenthesis)


17>(20)==============(17)
		hold bend

17>(20)>17   bend and release
            
Submit corrections

comments powered by Disqus
↑ Back to top | Pink Floyd Tabs for Shine On Pt4. Lyrics for acoustic guitar and electric guitar. Tablatures and chords are parodies/interpretations of the original songs. You may use it for private study, scholarship, research or language learning purposes only